ISO-10303-21;
HEADER;
FILE_DESCRIPTION( ( 'Unknown' ), '1' );
FILE_NAME( 'E:/98-Dis_3D_per_controllo/VBZ/6128100_VBZ22_M05/6128100_VBZ22_M05.stp', 'Unknown', ( 'Unknown' ), ( 'Unknown' ), 'PSStep 11.0', 'Unknown', '  ' );
FILE_SCHEMA( ( 'AUTOMOTIVE_DESIGN { 1 0 10303 214 1 1 1 1 }' ) );
ENDSEC;
DATA;
#1 = MECHANICAL_DESIGN_GEOMETRIC_PRESENTATION_REPRESENTATION( ' ', ( #10, #11, #12, #13, #14, #15, #16, #17, #18, #19, #20, #21, #22, #23, #24 ), #6 );
#2 = PRODUCT_DEFINITION_CONTEXT( '', #25, 'design' );
#3 = APPLICATION_PROTOCOL_DEFINITION( 'INTERNATIONAL STANDARD', 'automotive_design', 2001, #25 );
#4 = PRODUCT_CATEGORY_RELATIONSHIP( 'NONE', 'NONE', #26, #27 );
#5 = SHAPE_DEFINITION_REPRESENTATION( #28, #29 );
#6 =  ( GEOMETRIC_REPRESENTATION_CONTEXT( 3 )GLOBAL_UNCERTAINTY_ASSIGNED_CONTEXT( ( #32 ) )GLOBAL_UNIT_ASSIGNED_CONTEXT( ( #34, #35, #36 ) )REPRESENTATION_CONTEXT( 'NONE', 'WORKSPACE' ) );
#10 = STYLED_ITEM( '', ( #38 ), #39 );
#11 = STYLED_ITEM( '', ( #40 ), #41 );
#12 = STYLED_ITEM( '', ( #42 ), #43 );
#13 = STYLED_ITEM( '', ( #44 ), #45 );
#14 = STYLED_ITEM( '', ( #46 ), #47 );
#15 = STYLED_ITEM( '', ( #48 ), #49 );
#16 = STYLED_ITEM( '', ( #50 ), #51 );
#17 = STYLED_ITEM( '', ( #52 ), #53 );
#18 = STYLED_ITEM( '', ( #54 ), #55 );
#19 = STYLED_ITEM( '', ( #56 ), #57 );
#20 = STYLED_ITEM( '', ( #58 ), #59 );
#21 = STYLED_ITEM( '', ( #60 ), #61 );
#22 = STYLED_ITEM( '', ( #62 ), #63 );
#23 = STYLED_ITEM( '', ( #64 ), #65 );
#24 = STYLED_ITEM( '', ( #66 ), #67 );
#25 = APPLICATION_CONTEXT( 'core data for automotive mechanical design processes' );
#26 = PRODUCT_CATEGORY( 'part', 'NONE' );
#27 = PRODUCT_RELATED_PRODUCT_CATEGORY( 'detail', ' ', ( #68 ) );
#28 = PRODUCT_DEFINITION_SHAPE( 'NONE', 'NONE', #69 );
#29 = ADVANCED_BREP_SHAPE_REPRESENTATION( '6128100', ( #70, #71 ), #6 );
#32 = UNCERTAINTY_MEASURE_WITH_UNIT( LENGTH_MEASURE( 0.00100000000000000 ), #34, '', '' );
#34 =  ( CONVERSION_BASED_UNIT( 'MILLIMETRE', #74 )LENGTH_UNIT(  )NAMED_UNIT( #77 ) );
#35 =  ( NAMED_UNIT( #79 )PLANE_ANGLE_UNIT(  )SI_UNIT( $, .RADIAN. ) );
#36 =  ( NAMED_UNIT( #79 )SI_UNIT( $, .STERADIAN. )SOLID_ANGLE_UNIT(  ) );
#38 = PRESENTATION_STYLE_ASSIGNMENT( ( #85 ) );
#39 = ADVANCED_FACE( '', ( #86, #87 ), #88, .F. );
#40 = PRESENTATION_STYLE_ASSIGNMENT( ( #89 ) );
#41 = ADVANCED_FACE( '', ( #90 ), #91, .T. );
#42 = PRESENTATION_STYLE_ASSIGNMENT( ( #92 ) );
#43 = ADVANCED_FACE( '', ( #93, #94 ), #95, .T. );
#44 = PRESENTATION_STYLE_ASSIGNMENT( ( #96 ) );
#45 = ADVANCED_FACE( '', ( #97, #98 ), #99, .F. );
#46 = PRESENTATION_STYLE_ASSIGNMENT( ( #100 ) );
#47 = ADVANCED_FACE( '', ( #101, #102 ), #103, .T. );
#48 = PRESENTATION_STYLE_ASSIGNMENT( ( #104 ) );
#49 = ADVANCED_FACE( '', ( #105, #106 ), #107, .T. );
#50 = PRESENTATION_STYLE_ASSIGNMENT( ( #108 ) );
#51 = ADVANCED_FACE( '', ( #109, #110 ), #111, .T. );
#52 = PRESENTATION_STYLE_ASSIGNMENT( ( #112 ) );
#53 = ADVANCED_FACE( '', ( #113, #114 ), #115, .T. );
#54 = PRESENTATION_STYLE_ASSIGNMENT( ( #116 ) );
#55 = ADVANCED_FACE( '', ( #117, #118 ), #119, .F. );
#56 = PRESENTATION_STYLE_ASSIGNMENT( ( #120 ) );
#57 = ADVANCED_FACE( '', ( #121, #122 ), #123, .F. );
#58 = PRESENTATION_STYLE_ASSIGNMENT( ( #124 ) );
#59 = ADVANCED_FACE( '', ( #125, #126 ), #127, .F. );
#60 = PRESENTATION_STYLE_ASSIGNMENT( ( #128 ) );
#61 = ADVANCED_FACE( '', ( #129, #130 ), #131, .F. );
#62 = PRESENTATION_STYLE_ASSIGNMENT( ( #132 ) );
#63 = ADVANCED_FACE( '', ( #133, #134 ), #135, .F. );
#64 = PRESENTATION_STYLE_ASSIGNMENT( ( #136 ) );
#65 = ADVANCED_FACE( '', ( #137, #138 ), #139, .F. );
#66 = PRESENTATION_STYLE_ASSIGNMENT( ( #140 ) );
#67 = ADVANCED_FACE( '', ( #141, #142 ), #143, .F. );
#68 = PRODUCT( '6128100', '6128100', 'PART-6128100-DESC', ( #144 ) );
#69 = PRODUCT_DEFINITION( 'NONE', 'NONE', #145, #2 );
#70 = MANIFOLD_SOLID_BREP( '6128100', #146 );
#71 = AXIS2_PLACEMENT_3D( '', #147, #148, #149 );
#74 = LENGTH_MEASURE_WITH_UNIT( LENGTH_MEASURE( 1.00000000000000 ), #150 );
#77 = DIMENSIONAL_EXPONENTS( 1.00000000000000, 0.000000000000000, 0.000000000000000, 0.000000000000000, 0.000000000000000, 0.000000000000000, 0.000000000000000 );
#79 = DIMENSIONAL_EXPONENTS( 0.000000000000000, 0.000000000000000, 0.000000000000000, 0.000000000000000, 0.000000000000000, 0.000000000000000, 0.000000000000000 );
#85 = SURFACE_STYLE_USAGE( .BOTH., #151 );
#86 = FACE_OUTER_BOUND( '', #152, .T. );
#87 = FACE_OUTER_BOUND( '', #153, .T. );
#88 = TOROIDAL_SURFACE( '', #154, 8.89170962188936, 0.500000000000000 );
#89 = SURFACE_STYLE_USAGE( .BOTH., #155 );
#90 = FACE_OUTER_BOUND( '', #156, .T. );
#91 = SPHERICAL_SURFACE( '', #157, 16.5625000000000 );
#92 = SURFACE_STYLE_USAGE( .BOTH., #158 );
#93 = FACE_OUTER_BOUND( '', #159, .T. );
#94 = FACE_OUTER_BOUND( '', #160, .T. );
#95 = TOROIDAL_SURFACE( '', #161, 7.00000000000000, 0.500000000000000 );
#96 = SURFACE_STYLE_USAGE( .BOTH., #162 );
#97 = FACE_OUTER_BOUND( '', #163, .T. );
#98 = FACE_OUTER_BOUND( '', #164, .T. );
#99 = CYLINDRICAL_SURFACE( '', #165, 2.06700000000000 );
#100 = SURFACE_STYLE_USAGE( .BOTH., #166 );
#101 = FACE_BOUND( '', #167, .T. );
#102 = FACE_OUTER_BOUND( '', #168, .T. );
#103 = CONICAL_SURFACE( '', #169, 10.9801254874051, 0.0831412318884409 );
#104 = SURFACE_STYLE_USAGE( .BOTH., #170 );
#105 = FACE_OUTER_BOUND( '', #171, .T. );
#106 = FACE_OUTER_BOUND( '', #172, .T. );
#107 = TOROIDAL_SURFACE( '', #173, 9.98012548740507, 1.00000000000000 );
#108 = SURFACE_STYLE_USAGE( .BOTH., #174 );
#109 = FACE_OUTER_BOUND( '', #175, .T. );
#110 = FACE_OUTER_BOUND( '', #176, .T. );
#111 = CYLINDRICAL_SURFACE( '', #177, 7.50000000000000 );
#112 = SURFACE_STYLE_USAGE( .BOTH., #178 );
#113 = FACE_OUTER_BOUND( '', #179, .T. );
#114 = FACE_OUTER_BOUND( '', #180, .T. );
#115 = CYLINDRICAL_SURFACE( '', #181, 10.9801254874051 );
#116 = SURFACE_STYLE_USAGE( .BOTH., #182 );
#117 = FACE_OUTER_BOUND( '', #183, .T. );
#118 = FACE_OUTER_BOUND( '', #184, .T. );
#119 = TOROIDAL_SURFACE( '', #185, 8.00000000000000, 0.500000000000000 );
#120 = SURFACE_STYLE_USAGE( .BOTH., #186 );
#121 = FACE_OUTER_BOUND( '', #187, .T. );
#122 = FACE_BOUND( '', #188, .T. );
#123 = CONICAL_SURFACE( '', #189, 2.06700000000000, 1.02974425867665 );
#124 = SURFACE_STYLE_USAGE( .BOTH., #190 );
#125 = FACE_BOUND( '', #191, .T. );
#126 = FACE_OUTER_BOUND( '', #192, .T. );
#127 = PLANE( '', #193 );
#128 = SURFACE_STYLE_USAGE( .BOTH., #194 );
#129 = FACE_BOUND( '', #195, .T. );
#130 = FACE_OUTER_BOUND( '', #196, .T. );
#131 = PLANE( '', #197 );
#132 = SURFACE_STYLE_USAGE( .BOTH., #198 );
#133 = FACE_OUTER_BOUND( '', #199, .T. );
#134 = FACE_BOUND( '', #200, .T. );
#135 = PLANE( '', #201 );
#136 = SURFACE_STYLE_USAGE( .BOTH., #202 );
#137 = FACE_OUTER_BOUND( '', #203, .T. );
#138 = FACE_OUTER_BOUND( '', #204, .T. );
#139 = CYLINDRICAL_SURFACE( '', #205, 2.06700000000000 );
#140 = SURFACE_STYLE_USAGE( .BOTH., #206 );
#141 = FACE_BOUND( '', #207, .T. );
#142 = FACE_OUTER_BOUND( '', #208, .T. );
#143 = CONICAL_SURFACE( '', #209, 2.56700000000000, 0.785398163397448 );
#144 = PRODUCT_CONTEXT( '', #25, 'mechanical' );
#145 = PRODUCT_DEFINITION_FORMATION_WITH_SPECIFIED_SOURCE( ' ', 'NONE', #68, .NOT_KNOWN. );
#146 = CLOSED_SHELL( '', ( #63, #39, #57, #67, #45, #65, #41, #51, #49, #55, #61, #43, #47, #53, #59 ) );
#147 = CARTESIAN_POINT( '', ( 0.000000000000000, 0.000000000000000, 0.000000000000000 ) );
#148 = DIRECTION( '', ( 0.000000000000000, 0.000000000000000, 1.00000000000000 ) );
#149 = DIRECTION( '', ( 1.00000000000000, 0.000000000000000, 0.000000000000000 ) );
#150 =  ( LENGTH_UNIT(  )NAMED_UNIT( #77 )SI_UNIT( .MILLI., .METRE. ) );
#151 = SURFACE_SIDE_STYLE( '', ( #211 ) );
#152 = EDGE_LOOP( '', ( #212 ) );
#153 = EDGE_LOOP( '', ( #213 ) );
#154 = AXIS2_PLACEMENT_3D( '', #214, #215, #216 );
#155 = SURFACE_SIDE_STYLE( '', ( #217 ) );
#156 = EDGE_LOOP( '', ( #218 ) );
#157 = AXIS2_PLACEMENT_3D( '', #219, #220, #221 );
#158 = SURFACE_SIDE_STYLE( '', ( #222 ) );
#159 = EDGE_LOOP( '', ( #223 ) );
#160 = EDGE_LOOP( '', ( #224 ) );
#161 = AXIS2_PLACEMENT_3D( '', #225, #226, #227 );
#162 = SURFACE_SIDE_STYLE( '', ( #228 ) );
#163 = EDGE_LOOP( '', ( #229 ) );
#164 = EDGE_LOOP( '', ( #230 ) );
#165 = AXIS2_PLACEMENT_3D( '', #231, #232, #233 );
#166 = SURFACE_SIDE_STYLE( '', ( #234 ) );
#167 = EDGE_LOOP( '', ( #235 ) );
#168 = EDGE_LOOP( '', ( #236 ) );
#169 = AXIS2_PLACEMENT_3D( '', #237, #238, #239 );
#170 = SURFACE_SIDE_STYLE( '', ( #240 ) );
#171 = EDGE_LOOP( '', ( #241 ) );
#172 = EDGE_LOOP( '', ( #242 ) );
#173 = AXIS2_PLACEMENT_3D( '', #243, #244, #245 );
#174 = SURFACE_SIDE_STYLE( '', ( #246 ) );
#175 = EDGE_LOOP( '', ( #247 ) );
#176 = EDGE_LOOP( '', ( #248 ) );
#177 = AXIS2_PLACEMENT_3D( '', #249, #250, #251 );
#178 = SURFACE_SIDE_STYLE( '', ( #252 ) );
#179 = EDGE_LOOP( '', ( #253 ) );
#180 = EDGE_LOOP( '', ( #254 ) );
#181 = AXIS2_PLACEMENT_3D( '', #255, #256, #257 );
#182 = SURFACE_SIDE_STYLE( '', ( #258 ) );
#183 = EDGE_LOOP( '', ( #259 ) );
#184 = EDGE_LOOP( '', ( #260 ) );
#185 = AXIS2_PLACEMENT_3D( '', #261, #262, #263 );
#186 = SURFACE_SIDE_STYLE( '', ( #264 ) );
#187 = EDGE_LOOP( '', ( #265 ) );
#188 = VERTEX_LOOP( '', #266 );
#189 = AXIS2_PLACEMENT_3D( '', #267, #268, #269 );
#190 = SURFACE_SIDE_STYLE( '', ( #270 ) );
#191 = EDGE_LOOP( '', ( #271 ) );
#192 = EDGE_LOOP( '', ( #272 ) );
#193 = AXIS2_PLACEMENT_3D( '', #273, #274, #275 );
#194 = SURFACE_SIDE_STYLE( '', ( #276 ) );
#195 = EDGE_LOOP( '', ( #277 ) );
#196 = EDGE_LOOP( '', ( #278 ) );
#197 = AXIS2_PLACEMENT_3D( '', #279, #280, #281 );
#198 = SURFACE_SIDE_STYLE( '', ( #282 ) );
#199 = EDGE_LOOP( '', ( #283 ) );
#200 = EDGE_LOOP( '', ( #284 ) );
#201 = AXIS2_PLACEMENT_3D( '', #285, #286, #287 );
#202 = SURFACE_SIDE_STYLE( '', ( #288 ) );
#203 = EDGE_LOOP( '', ( #289 ) );
#204 = EDGE_LOOP( '', ( #290 ) );
#205 = AXIS2_PLACEMENT_3D( '', #291, #292, #293 );
#206 = SURFACE_SIDE_STYLE( '', ( #294 ) );
#207 = EDGE_LOOP( '', ( #295 ) );
#208 = EDGE_LOOP( '', ( #296 ) );
#209 = AXIS2_PLACEMENT_3D( '', #297, #298, #299 );
#211 = SURFACE_STYLE_FILL_AREA( #300 );
#212 = ORIENTED_EDGE( '', *, *, #301, .F. );
#213 = ORIENTED_EDGE( '', *, *, #302, .F. );
#214 = CARTESIAN_POINT( '', ( 1.21692272014403E-018, 0.0198745125949353, 14.0000000000000 ) );
#215 = DIRECTION( '', ( 0.000000000000000, 0.000000000000000, -1.00000000000000 ) );
#216 = DIRECTION( '', ( -1.00000000000000, 0.000000000000000, 0.000000000000000 ) );
#217 = SURFACE_STYLE_FILL_AREA( #303 );
#218 = ORIENTED_EDGE( '', *, *, #302, .T. );
#219 = CARTESIAN_POINT( '', ( 1.21692272014403E-018, 0.0198745125949353, -0.562499999999968 ) );
#220 = DIRECTION( '', ( 0.000000000000000, 0.000000000000000, 1.00000000000000 ) );
#221 = DIRECTION( '', ( 6.12303176911189E-017, 1.00000000000000, 0.000000000000000 ) );
#222 = SURFACE_STYLE_FILL_AREA( #304 );
#223 = ORIENTED_EDGE( '', *, *, #305, .F. );
#224 = ORIENTED_EDGE( '', *, *, #306, .F. );
#225 = CARTESIAN_POINT( '', ( 1.21692272014348E-018, 0.0198745125949262, 0.500000000000000 ) );
#226 = DIRECTION( '', ( 0.000000000000000, 0.000000000000000, 1.00000000000000 ) );
#227 = DIRECTION( '', ( 1.00000000000000, 0.000000000000000, 0.000000000000000 ) );
#228 = SURFACE_STYLE_FILL_AREA( #307 );
#229 = ORIENTED_EDGE( '', *, *, #308, .T. );
#230 = ORIENTED_EDGE( '', *, *, #309, .F. );
#231 = CARTESIAN_POINT( '', ( 0.000000000000000, -1.08420217248550E-016, 3.81158727627215E-015 ) );
#232 = DIRECTION( '', ( -0.000000000000000, 0.000000000000000, -1.00000000000000 ) );
#233 = DIRECTION( '', ( 0.000000000000000, 1.00000000000000, 0.000000000000000 ) );
#234 = SURFACE_STYLE_FILL_AREA( #310 );
#235 = ORIENTED_EDGE( '', *, *, #311, .F. );
#236 = ORIENTED_EDGE( '', *, *, #312, .T. );
#237 = CARTESIAN_POINT( '', ( 1.21692272014348E-018, 0.0198745125949262, 7.50000000000000 ) );
#238 = DIRECTION( '', ( -0.000000000000000, 0.000000000000000, -1.00000000000000 ) );
#239 = DIRECTION( '', ( -1.00000000000000, 0.000000000000000, 0.000000000000000 ) );
#240 = SURFACE_STYLE_FILL_AREA( #313 );
#241 = ORIENTED_EDGE( '', *, *, #314, .F. );
#242 = ORIENTED_EDGE( '', *, *, #315, .F. );
#243 = CARTESIAN_POINT( '', ( 1.21692272014348E-018, 0.0198745125949262, 7.00000000000000 ) );
#244 = DIRECTION( '', ( 0.000000000000000, 0.000000000000000, 1.00000000000000 ) );
#245 = DIRECTION( '', ( 1.00000000000000, 0.000000000000000, 0.000000000000000 ) );
#246 = SURFACE_STYLE_FILL_AREA( #316 );
#247 = ORIENTED_EDGE( '', *, *, #306, .T. );
#248 = ORIENTED_EDGE( '', *, *, #317, .T. );
#249 = CARTESIAN_POINT( '', ( 1.21692272014348E-018, 0.0198745125949262, 19.0000000000000 ) );
#250 = DIRECTION( '', ( -0.000000000000000, -0.000000000000000, -1.00000000000000 ) );
#251 = DIRECTION( '', ( 1.00000000000000, 0.000000000000000, 0.000000000000000 ) );
#252 = SURFACE_STYLE_FILL_AREA( #318 );
#253 = ORIENTED_EDGE( '', *, *, #315, .T. );
#254 = ORIENTED_EDGE( '', *, *, #312, .F. );
#255 = CARTESIAN_POINT( '', ( 1.21692272014348E-018, 0.0198745125949262, 19.0000000000000 ) );
#256 = DIRECTION( '', ( -0.000000000000000, -0.000000000000000, -1.00000000000000 ) );
#257 = DIRECTION( '', ( 1.00000000000000, 0.000000000000000, 0.000000000000000 ) );
#258 = SURFACE_STYLE_FILL_AREA( #319 );
#259 = ORIENTED_EDGE( '', *, *, #317, .F. );
#260 = ORIENTED_EDGE( '', *, *, #320, .F. );
#261 = CARTESIAN_POINT( '', ( 1.21692272014348E-018, 0.0198745125949262, 5.50000000000000 ) );
#262 = DIRECTION( '', ( 0.000000000000000, 0.000000000000000, 1.00000000000000 ) );
#263 = DIRECTION( '', ( 1.00000000000000, 0.000000000000000, 0.000000000000000 ) );
#264 = SURFACE_STYLE_FILL_AREA( #321 );
#265 = ORIENTED_EDGE( '', *, *, #322, .F. );
#266 = VERTEX_POINT( '', #323 );
#267 = CARTESIAN_POINT( '', ( 0.000000000000000, -1.08420217248550E-016, 9.25802110047004 ) );
#268 = DIRECTION( '', ( 0.000000000000000, -0.000000000000000, -1.00000000000000 ) );
#269 = DIRECTION( '', ( 0.000000000000000, -1.00000000000000, 0.000000000000000 ) );
#270 = SURFACE_STYLE_FILL_AREA( #324 );
#271 = ORIENTED_EDGE( '', *, *, #320, .T. );
#272 = ORIENTED_EDGE( '', *, *, #314, .T. );
#273 = CARTESIAN_POINT( '', ( 4.60444305403535E-016, 7.51987451259493, 6.00000000000000 ) );
#274 = DIRECTION( '', ( 0.000000000000000, 0.000000000000000, 1.00000000000000 ) );
#275 = DIRECTION( '', ( 1.00000000000000, 0.000000000000000, 0.000000000000000 ) );
#276 = SURFACE_STYLE_FILL_AREA( #325 );
#277 = ORIENTED_EDGE( '', *, *, #301, .T. );
#278 = ORIENTED_EDGE( '', *, *, #311, .T. );
#279 = CARTESIAN_POINT( '', ( 5.36982202517434E-016, 8.76987451259494, 13.5000000000000 ) );
#280 = DIRECTION( '', ( 0.000000000000000, 0.000000000000000, -1.00000000000000 ) );
#281 = DIRECTION( '', ( -1.00000000000000, 0.000000000000000, 0.000000000000000 ) );
#282 = SURFACE_STYLE_FILL_AREA( #326 );
#283 = ORIENTED_EDGE( '', *, *, #305, .T. );
#284 = ORIENTED_EDGE( '', *, *, #327, .T. );
#285 = CARTESIAN_POINT( '', ( 1.21692272014355E-018, 0.0198745125949275, 5.34738539032268E-015 ) );
#286 = DIRECTION( '', ( 0.000000000000000, 0.000000000000000, 1.00000000000000 ) );
#287 = DIRECTION( '', ( 1.00000000000000, 0.000000000000000, 0.000000000000000 ) );
#288 = SURFACE_STYLE_FILL_AREA( #328 );
#289 = ORIENTED_EDGE( '', *, *, #322, .T. );
#290 = ORIENTED_EDGE( '', *, *, #309, .T. );
#291 = CARTESIAN_POINT( '', ( 0.000000000000000, -1.08420217248550E-016, 3.81158727627215E-015 ) );
#292 = DIRECTION( '', ( -0.000000000000000, 0.000000000000000, -1.00000000000000 ) );
#293 = DIRECTION( '', ( 0.000000000000000, 1.00000000000000, 0.000000000000000 ) );
#294 = SURFACE_STYLE_FILL_AREA( #329 );
#295 = ORIENTED_EDGE( '', *, *, #308, .F. );
#296 = ORIENTED_EDGE( '', *, *, #327, .F. );
#297 = CARTESIAN_POINT( '', ( 0.000000000000000, -1.08420217248550E-016, 3.81158727627215E-015 ) );
#298 = DIRECTION( '', ( -0.000000000000000, 0.000000000000000, -1.00000000000000 ) );
#299 = DIRECTION( '', ( -1.00000000000000, 0.000000000000000, 0.000000000000000 ) );
#300 = FILL_AREA_STYLE( '', ( #330 ) );
#301 = EDGE_CURVE( '', #331, #331, #332, .T. );
#302 = EDGE_CURVE( '', #333, #333, #334, .F. );
#303 = FILL_AREA_STYLE( '', ( #335 ) );
#304 = FILL_AREA_STYLE( '', ( #336 ) );
#305 = EDGE_CURVE( '', #337, #337, #338, .F. );
#306 = EDGE_CURVE( '', #339, #339, #340, .T. );
#307 = FILL_AREA_STYLE( '', ( #341 ) );
#308 = EDGE_CURVE( '', #342, #342, #343, .F. );
#309 = EDGE_CURVE( '', #344, #344, #345, .T. );
#310 = FILL_AREA_STYLE( '', ( #346 ) );
#311 = EDGE_CURVE( '', #347, #347, #348, .T. );
#312 = EDGE_CURVE( '', #349, #349, #350, .T. );
#313 = FILL_AREA_STYLE( '', ( #351 ) );
#314 = EDGE_CURVE( '', #352, #352, #353, .F. );
#315 = EDGE_CURVE( '', #354, #354, #355, .T. );
#316 = FILL_AREA_STYLE( '', ( #356 ) );
#317 = EDGE_CURVE( '', #357, #357, #358, .F. );
#318 = FILL_AREA_STYLE( '', ( #359 ) );
#319 = FILL_AREA_STYLE( '', ( #360 ) );
#320 = EDGE_CURVE( '', #361, #361, #362, .T. );
#321 = FILL_AREA_STYLE( '', ( #363 ) );
#322 = EDGE_CURVE( '', #364, #364, #365, .T. );
#323 = CARTESIAN_POINT( '', ( 0.000000000000000, -1.08420217248550E-016, 10.5000000000000 ) );
#324 = FILL_AREA_STYLE( '', ( #366 ) );
#325 = FILL_AREA_STYLE( '', ( #367 ) );
#326 = FILL_AREA_STYLE( '', ( #368 ) );
#327 = EDGE_CURVE( '', #369, #369, #370, .T. );
#328 = FILL_AREA_STYLE( '', ( #371 ) );
#329 = FILL_AREA_STYLE( '', ( #372 ) );
#330 = FILL_AREA_STYLE_COLOUR( '', #373 );
#331 = VERTEX_POINT( '', #374 );
#332 = CIRCLE( '', #375, 8.89170962188936 );
#333 = VERTEX_POINT( '', #376 );
#334 = CIRCLE( '', #377, 8.63114670256659 );
#335 = FILL_AREA_STYLE_COLOUR( '', #378 );
#336 = FILL_AREA_STYLE_COLOUR( '', #379 );
#337 = VERTEX_POINT( '', #380 );
#338 = CIRCLE( '', #381, 7.00000000000000 );
#339 = VERTEX_POINT( '', #382 );
#340 = CIRCLE( '', #383, 7.50000000000000 );
#341 = FILL_AREA_STYLE_COLOUR( '', #384 );
#342 = VERTEX_POINT( '', #385 );
#343 = CIRCLE( '', #386, 2.06700000000000 );
#344 = VERTEX_POINT( '', #387 );
#345 = CIRCLE( '', #388, 2.06700000000000 );
#346 = FILL_AREA_STYLE_COLOUR( '', #389 );
#347 = VERTEX_POINT( '', #390 );
#348 = CIRCLE( '', #391, 10.4801254874051 );
#349 = VERTEX_POINT( '', #392 );
#350 = CIRCLE( '', #393, 10.9801254874051 );
#351 = FILL_AREA_STYLE_COLOUR( '', #394 );
#352 = VERTEX_POINT( '', #395 );
#353 = CIRCLE( '', #396, 9.98012548740507 );
#354 = VERTEX_POINT( '', #397 );
#355 = CIRCLE( '', #398, 10.9801254874051 );
#356 = FILL_AREA_STYLE_COLOUR( '', #399 );
#357 = VERTEX_POINT( '', #400 );
#358 = CIRCLE( '', #401, 7.50000000000000 );
#359 = FILL_AREA_STYLE_COLOUR( '', #402 );
#360 = FILL_AREA_STYLE_COLOUR( '', #403 );
#361 = VERTEX_POINT( '', #404 );
#362 = CIRCLE( '', #405, 8.00000000000000 );
#363 = FILL_AREA_STYLE_COLOUR( '', #406 );
#364 = VERTEX_POINT( '', #407 );
#365 = CIRCLE( '', #408, 2.06700000000000 );
#366 = FILL_AREA_STYLE_COLOUR( '', #409 );
#367 = FILL_AREA_STYLE_COLOUR( '', #410 );
#368 = FILL_AREA_STYLE_COLOUR( '', #411 );
#369 = VERTEX_POINT( '', #412 );
#370 = CIRCLE( '', #413, 2.56700000000000 );
#371 = FILL_AREA_STYLE_COLOUR( '', #414 );
#372 = FILL_AREA_STYLE_COLOUR( '', #415 );
#373 = COLOUR_RGB( '', 0.200000002980232, 0.200000002980232, 0.200000002980232 );
#374 = CARTESIAN_POINT( '', ( -8.89170962188936, 0.0198745125949353, 13.5000000000000 ) );
#375 = AXIS2_PLACEMENT_3D( '', #416, #417, #418 );
#376 = CARTESIAN_POINT( '', ( -8.63114670256659, 0.0198745125949353, 13.5732600732601 ) );
#377 = AXIS2_PLACEMENT_3D( '', #419, #420, #421 );
#378 = COLOUR_RGB( '', 0.200000002980232, 0.200000002980232, 0.200000002980232 );
#379 = COLOUR_RGB( '', 0.200000002980232, 0.200000002980232, 0.200000002980232 );
#380 = CARTESIAN_POINT( '', ( 7.00000000000000, 0.0198745125949262, 5.31259064517897E-015 ) );
#381 = AXIS2_PLACEMENT_3D( '', #422, #423, #424 );
#382 = CARTESIAN_POINT( '', ( 7.50000000000000, 0.0198745125949262, 0.500000000000000 ) );
#383 = AXIS2_PLACEMENT_3D( '', #425, #426, #427 );
#384 = COLOUR_RGB( '', 0.752941191196442, 0.752941191196442, 0.752941191196442 );
#385 = CARTESIAN_POINT( '', ( 2.06700000000000, -1.08420217248550E-016, 0.500000000000000 ) );
#386 = AXIS2_PLACEMENT_3D( '', #428, #429, #430 );
#387 = CARTESIAN_POINT( '', ( 0.000000000000000, 2.06700000000000, 8.50000000000000 ) );
#388 = AXIS2_PLACEMENT_3D( '', #431, #432, #433 );
#389 = COLOUR_RGB( '', 0.200000002980232, 0.200000002980232, 0.200000002980232 );
#390 = CARTESIAN_POINT( '', ( 10.4801254874051, 0.0198745125949262, 13.5000000000000 ) );
#391 = AXIS2_PLACEMENT_3D( '', #434, #435, #436 );
#392 = CARTESIAN_POINT( '', ( 10.9801254874051, 0.0198745125949262, 7.50000000000000 ) );
#393 = AXIS2_PLACEMENT_3D( '', #437, #438, #439 );
#394 = COLOUR_RGB( '', 0.200000002980232, 0.200000002980232, 0.200000002980232 );
#395 = CARTESIAN_POINT( '', ( 9.98012548740507, 0.0198745125949262, 6.00000000000000 ) );
#396 = AXIS2_PLACEMENT_3D( '', #440, #441, #442 );
#397 = CARTESIAN_POINT( '', ( 10.9801254874051, 0.0198745125949262, 7.00000000000000 ) );
#398 = AXIS2_PLACEMENT_3D( '', #443, #444, #445 );
#399 = COLOUR_RGB( '', 0.200000002980232, 0.200000002980232, 0.200000002980232 );
#400 = CARTESIAN_POINT( '', ( 7.50000000000000, 0.0198745125949262, 5.50000000000000 ) );
#401 = AXIS2_PLACEMENT_3D( '', #446, #447, #448 );
#402 = COLOUR_RGB( '', 0.200000002980232, 0.200000002980232, 0.200000002980232 );
#403 = COLOUR_RGB( '', 0.200000002980232, 0.200000002980232, 0.200000002980232 );
#404 = CARTESIAN_POINT( '', ( 8.00000000000000, 0.0198745125949262, 6.00000000000000 ) );
#405 = AXIS2_PLACEMENT_3D( '', #449, #450, #451 );
#406 = COLOUR_RGB( '', 0.666666686534882, 0.400000005960464, 0.133333340287209 );
#407 = CARTESIAN_POINT( '', ( 0.000000000000000, -2.06700000000000, 9.25802110047004 ) );
#408 = AXIS2_PLACEMENT_3D( '', #452, #453, #454 );
#409 = COLOUR_RGB( '', 0.200000002980232, 0.200000002980232, 0.200000002980232 );
#410 = COLOUR_RGB( '', 0.200000002980232, 0.200000002980232, 0.200000002980232 );
#411 = COLOUR_RGB( '', 0.752941191196442, 0.752941191196442, 0.752941191196442 );
#412 = CARTESIAN_POINT( '', ( 2.56700000000000, -1.08420217248550E-016, 3.81158727627215E-015 ) );
#413 = AXIS2_PLACEMENT_3D( '', #455, #456, #457 );
#414 = COLOUR_RGB( '', 0.666666686534882, 0.400000005960464, 0.133333340287209 );
#415 = COLOUR_RGB( '', 0.666666686534882, 0.400000005960464, 0.133333340287209 );
#416 = CARTESIAN_POINT( '', ( 1.21692272014403E-018, 0.0198745125949353, 13.5000000000000 ) );
#417 = DIRECTION( '', ( 0.000000000000000, 0.000000000000000, -1.00000000000000 ) );
#418 = DIRECTION( '', ( -1.00000000000000, 0.000000000000000, 0.000000000000000 ) );
#419 = CARTESIAN_POINT( '', ( 1.21692272014403E-018, 0.0198745125949353, 13.5732600732601 ) );
#420 = DIRECTION( '', ( 0.000000000000000, 0.000000000000000, -1.00000000000000 ) );
#421 = DIRECTION( '', ( -1.00000000000000, 0.000000000000000, 0.000000000000000 ) );
#422 = CARTESIAN_POINT( '', ( 1.21692272014348E-018, 0.0198745125949262, 5.31259064517897E-015 ) );
#423 = DIRECTION( '', ( 0.000000000000000, 0.000000000000000, 1.00000000000000 ) );
#424 = DIRECTION( '', ( 1.00000000000000, 0.000000000000000, 0.000000000000000 ) );
#425 = CARTESIAN_POINT( '', ( 1.21692272014348E-018, 0.0198745125949262, 0.500000000000000 ) );
#426 = DIRECTION( '', ( 0.000000000000000, 0.000000000000000, 1.00000000000000 ) );
#427 = DIRECTION( '', ( 1.00000000000000, 0.000000000000000, 0.000000000000000 ) );
#428 = CARTESIAN_POINT( '', ( 0.000000000000000, -1.08420217248550E-016, 0.500000000000000 ) );
#429 = DIRECTION( '', ( 0.000000000000000, 0.000000000000000, 1.00000000000000 ) );
#430 = DIRECTION( '', ( 1.00000000000000, 0.000000000000000, 0.000000000000000 ) );
#431 = CARTESIAN_POINT( '', ( 0.000000000000000, -1.08420217248550E-016, 8.50000000000000 ) );
#432 = DIRECTION( '', ( 0.000000000000000, 0.000000000000000, -1.00000000000000 ) );
#433 = DIRECTION( '', ( 0.000000000000000, 1.00000000000000, 0.000000000000000 ) );
#434 = CARTESIAN_POINT( '', ( 1.21692272014348E-018, 0.0198745125949262, 13.5000000000000 ) );
#435 = DIRECTION( '', ( 0.000000000000000, 0.000000000000000, 1.00000000000000 ) );
#436 = DIRECTION( '', ( 1.00000000000000, 0.000000000000000, 0.000000000000000 ) );
#437 = CARTESIAN_POINT( '', ( 1.21692272014348E-018, 0.0198745125949262, 7.50000000000000 ) );
#438 = DIRECTION( '', ( 0.000000000000000, 0.000000000000000, 1.00000000000000 ) );
#439 = DIRECTION( '', ( 1.00000000000000, 0.000000000000000, 0.000000000000000 ) );
#440 = CARTESIAN_POINT( '', ( 1.21692272014348E-018, 0.0198745125949262, 6.00000000000000 ) );
#441 = DIRECTION( '', ( 0.000000000000000, 0.000000000000000, 1.00000000000000 ) );
#442 = DIRECTION( '', ( 1.00000000000000, 0.000000000000000, 0.000000000000000 ) );
#443 = CARTESIAN_POINT( '', ( 1.21692272014348E-018, 0.0198745125949262, 7.00000000000000 ) );
#444 = DIRECTION( '', ( 0.000000000000000, 0.000000000000000, 1.00000000000000 ) );
#445 = DIRECTION( '', ( 1.00000000000000, 0.000000000000000, 0.000000000000000 ) );
#446 = CARTESIAN_POINT( '', ( 1.21692272014348E-018, 0.0198745125949262, 5.50000000000000 ) );
#447 = DIRECTION( '', ( 0.000000000000000, 0.000000000000000, 1.00000000000000 ) );
#448 = DIRECTION( '', ( 1.00000000000000, 0.000000000000000, 0.000000000000000 ) );
#449 = CARTESIAN_POINT( '', ( 1.21692272014348E-018, 0.0198745125949262, 6.00000000000000 ) );
#450 = DIRECTION( '', ( 0.000000000000000, 0.000000000000000, 1.00000000000000 ) );
#451 = DIRECTION( '', ( 1.00000000000000, 0.000000000000000, 0.000000000000000 ) );
#452 = CARTESIAN_POINT( '', ( 0.000000000000000, -1.08420217248550E-016, 9.25802110047004 ) );
#453 = DIRECTION( '', ( 0.000000000000000, 0.000000000000000, 1.00000000000000 ) );
#454 = DIRECTION( '', ( 0.000000000000000, -1.00000000000000, 0.000000000000000 ) );
#455 = CARTESIAN_POINT( '', ( 0.000000000000000, -1.08420217248550E-016, 3.81158727627215E-015 ) );
#456 = DIRECTION( '', ( 0.000000000000000, 0.000000000000000, 1.00000000000000 ) );
#457 = DIRECTION( '', ( 1.00000000000000, 0.000000000000000, 0.000000000000000 ) );
ENDSEC;
END-ISO-10303-21;
