ISO-10303-21;
HEADER;
FILE_DESCRIPTION( ( 'Unknown' ), '1' );
FILE_NAME( '//SBS2003/HD_Usb/Disegni/08_LIB/Users_3D/PROD_GAMM_3D/PB/6131050_PB32_M10.stp', 'Unknown', ( 'Unknown' ), ( 'Unknown' ), 'PSStep 11.0', 'Unknown', '  ' );
FILE_SCHEMA( ( 'AUTOMOTIVE_DESIGN { 1 0 10303 214 1 1 1 1 }' ) );
ENDSEC;
DATA;
#1 = MECHANICAL_DESIGN_GEOMETRIC_PRESENTATION_REPRESENTATION( ' ', ( #10, #11, #12, #13, #14, #15, #16, #17 ), #6 );
#2 = PRODUCT_DEFINITION_CONTEXT( '', #18, 'design' );
#3 = APPLICATION_PROTOCOL_DEFINITION( 'INTERNATIONAL STANDARD', 'automotive_design', 2001, #18 );
#4 = PRODUCT_CATEGORY_RELATIONSHIP( 'NONE', 'NONE', #19, #20 );
#5 = SHAPE_DEFINITION_REPRESENTATION( #21, #22 );
#6 =  ( GEOMETRIC_REPRESENTATION_CONTEXT( 3 )GLOBAL_UNCERTAINTY_ASSIGNED_CONTEXT( ( #25 ) )GLOBAL_UNIT_ASSIGNED_CONTEXT( ( #27, #28, #29 ) )REPRESENTATION_CONTEXT( 'NONE', 'WORKSPACE' ) );
#10 = STYLED_ITEM( '', ( #31 ), #32 );
#11 = STYLED_ITEM( '', ( #33 ), #34 );
#12 = STYLED_ITEM( '', ( #35 ), #36 );
#13 = STYLED_ITEM( '', ( #37 ), #38 );
#14 = STYLED_ITEM( '', ( #39 ), #40 );
#15 = STYLED_ITEM( '', ( #41 ), #42 );
#16 = STYLED_ITEM( '', ( #43 ), #44 );
#17 = STYLED_ITEM( '', ( #45 ), #46 );
#18 = APPLICATION_CONTEXT( 'core data for automotive mechanical design processes' );
#19 = PRODUCT_CATEGORY( 'part', 'NONE' );
#20 = PRODUCT_RELATED_PRODUCT_CATEGORY( 'detail', ' ', ( #47 ) );
#21 = PRODUCT_DEFINITION_SHAPE( 'NONE', 'NONE', #48 );
#22 = ADVANCED_BREP_SHAPE_REPRESENTATION( '1', ( #49, #50 ), #6 );
#25 = UNCERTAINTY_MEASURE_WITH_UNIT( LENGTH_MEASURE( 0.00100000000000000 ), #27, '', '' );
#27 =  ( CONVERSION_BASED_UNIT( 'MILLIMETRE', #53 )LENGTH_UNIT(  )NAMED_UNIT( #56 ) );
#28 =  ( NAMED_UNIT( #58 )PLANE_ANGLE_UNIT(  )SI_UNIT( $, .RADIAN. ) );
#29 =  ( NAMED_UNIT( #58 )SI_UNIT( $, .STERADIAN. )SOLID_ANGLE_UNIT(  ) );
#31 = PRESENTATION_STYLE_ASSIGNMENT( ( #64 ) );
#32 = ADVANCED_FACE( '', ( #65, #66 ), #67, .T. );
#33 = PRESENTATION_STYLE_ASSIGNMENT( ( #68 ) );
#34 = ADVANCED_FACE( '', ( #69, #70 ), #71, .T. );
#35 = PRESENTATION_STYLE_ASSIGNMENT( ( #72 ) );
#36 = ADVANCED_FACE( '', ( #73, #74 ), #75, .F. );
#37 = PRESENTATION_STYLE_ASSIGNMENT( ( #76 ) );
#38 = ADVANCED_FACE( '', ( #77, #78 ), #79, .F. );
#39 = PRESENTATION_STYLE_ASSIGNMENT( ( #80 ) );
#40 = ADVANCED_FACE( '', ( #81 ), #82, .T. );
#41 = PRESENTATION_STYLE_ASSIGNMENT( ( #83 ) );
#42 = ADVANCED_FACE( '', ( #84, #85 ), #86, .F. );
#43 = PRESENTATION_STYLE_ASSIGNMENT( ( #87 ) );
#44 = ADVANCED_FACE( '', ( #88, #89 ), #90, .T. );
#45 = PRESENTATION_STYLE_ASSIGNMENT( ( #91 ) );
#46 = ADVANCED_FACE( '', ( #92, #93 ), #94, .F. );
#47 = PRODUCT( '1', '1', 'PART-1-DESC', ( #95 ) );
#48 = PRODUCT_DEFINITION( 'NONE', 'NONE', #96, #2 );
#49 = MANIFOLD_SOLID_BREP( '1', #97 );
#50 = AXIS2_PLACEMENT_3D( '', #98, #99, #100 );
#53 = LENGTH_MEASURE_WITH_UNIT( LENGTH_MEASURE( 1.00000000000000 ), #101 );
#56 = DIMENSIONAL_EXPONENTS( 1.00000000000000, 0.000000000000000, 0.000000000000000, 0.000000000000000, 0.000000000000000, 0.000000000000000, 0.000000000000000 );
#58 = DIMENSIONAL_EXPONENTS( 0.000000000000000, 0.000000000000000, 0.000000000000000, 0.000000000000000, 0.000000000000000, 0.000000000000000, 0.000000000000000 );
#64 = SURFACE_STYLE_USAGE( .BOTH., #102 );
#65 = FACE_OUTER_BOUND( '', #103, .T. );
#66 = FACE_OUTER_BOUND( '', #104, .T. );
#67 = TOROIDAL_SURFACE( '', #105, 4.68800000000000, 0.500000000000000 );
#68 = SURFACE_STYLE_USAGE( .BOTH., #106 );
#69 = FACE_BOUND( '', #107, .T. );
#70 = FACE_OUTER_BOUND( '', #108, .T. );
#71 = PLANE( '', #109 );
#72 = SURFACE_STYLE_USAGE( .BOTH., #110 );
#73 = FACE_OUTER_BOUND( '', #111, .T. );
#74 = FACE_BOUND( '', #112, .T. );
#75 = CONICAL_SURFACE( '', #113, 4.18800000000000, 1.02974425867665 );
#76 = SURFACE_STYLE_USAGE( .BOTH., #114 );
#77 = FACE_OUTER_BOUND( '', #115, .T. );
#78 = FACE_OUTER_BOUND( '', #116, .T. );
#79 = CYLINDRICAL_SURFACE( '', #117, 4.18800000000000 );
#80 = SURFACE_STYLE_USAGE( .BOTH., #118 );
#81 = FACE_OUTER_BOUND( '', #119, .T. );
#82 = SPHERICAL_SURFACE( '', #120, 16.0000000000000 );
#83 = SURFACE_STYLE_USAGE( .BOTH., #121 );
#84 = FACE_OUTER_BOUND( '', #122, .T. );
#85 = FACE_OUTER_BOUND( '', #123, .T. );
#86 = CYLINDRICAL_SURFACE( '', #124, 4.18800000000000 );
#87 = SURFACE_STYLE_USAGE( .BOTH., #125 );
#88 = FACE_OUTER_BOUND( '', #126, .T. );
#89 = FACE_OUTER_BOUND( '', #127, .T. );
#90 = SPHERICAL_SURFACE( '', #128, 16.0000000000000 );
#91 = SURFACE_STYLE_USAGE( .BOTH., #129 );
#92 = FACE_OUTER_BOUND( '', #130, .T. );
#93 = FACE_OUTER_BOUND( '', #131, .T. );
#94 = TOROIDAL_SURFACE( '', #132, 16.0000000000000, 1.00000000000000 );
#95 = PRODUCT_CONTEXT( '', #18, 'mechanical' );
#96 = PRODUCT_DEFINITION_FORMATION_WITH_SPECIFIED_SOURCE( ' ', 'NONE', #47, .NOT_KNOWN. );
#97 = CLOSED_SHELL( '', ( #44, #32, #36, #46, #38, #40, #34, #42 ) );
#98 = CARTESIAN_POINT( '', ( 0.000000000000000, 0.000000000000000, 0.000000000000000 ) );
#99 = DIRECTION( '', ( 0.000000000000000, 0.000000000000000, 1.00000000000000 ) );
#100 = DIRECTION( '', ( 1.00000000000000, 0.000000000000000, 0.000000000000000 ) );
#101 =  ( LENGTH_UNIT(  )NAMED_UNIT( #56 )SI_UNIT( .MILLI., .METRE. ) );
#102 = SURFACE_SIDE_STYLE( '', ( #134 ) );
#103 = EDGE_LOOP( '', ( #135 ) );
#104 = EDGE_LOOP( '', ( #136 ) );
#105 = AXIS2_PLACEMENT_3D( '', #137, #138, #139 );
#106 = SURFACE_SIDE_STYLE( '', ( #140 ) );
#107 = EDGE_LOOP( '', ( #141 ) );
#108 = EDGE_LOOP( '', ( #142 ) );
#109 = AXIS2_PLACEMENT_3D( '', #143, #144, #145 );
#110 = SURFACE_SIDE_STYLE( '', ( #146 ) );
#111 = EDGE_LOOP( '', ( #147 ) );
#112 = VERTEX_LOOP( '', #148 );
#113 = AXIS2_PLACEMENT_3D( '', #149, #150, #151 );
#114 = SURFACE_SIDE_STYLE( '', ( #152 ) );
#115 = EDGE_LOOP( '', ( #153 ) );
#116 = EDGE_LOOP( '', ( #154 ) );
#117 = AXIS2_PLACEMENT_3D( '', #155, #156, #157 );
#118 = SURFACE_SIDE_STYLE( '', ( #158 ) );
#119 = EDGE_LOOP( '', ( #159 ) );
#120 = AXIS2_PLACEMENT_3D( '', #160, #161, #162 );
#121 = SURFACE_SIDE_STYLE( '', ( #163 ) );
#122 = EDGE_LOOP( '', ( #164 ) );
#123 = EDGE_LOOP( '', ( #165 ) );
#124 = AXIS2_PLACEMENT_3D( '', #166, #167, #168 );
#125 = SURFACE_SIDE_STYLE( '', ( #169 ) );
#126 = EDGE_LOOP( '', ( #170 ) );
#127 = EDGE_LOOP( '', ( #171 ) );
#128 = AXIS2_PLACEMENT_3D( '', #172, #173, #174 );
#129 = SURFACE_SIDE_STYLE( '', ( #175 ) );
#130 = EDGE_LOOP( '', ( #176 ) );
#131 = EDGE_LOOP( '', ( #177 ) );
#132 = AXIS2_PLACEMENT_3D( '', #178, #179, #180 );
#134 = SURFACE_STYLE_FILL_AREA( #181 );
#135 = ORIENTED_EDGE( '', *, *, #182, .F. );
#136 = ORIENTED_EDGE( '', *, *, #183, .F. );
#137 = CARTESIAN_POINT( '', ( 3.49655200626575E-015, 0.000000000000000, 1.00000000000000 ) );
#138 = DIRECTION( '', ( 0.000000000000000, 0.000000000000000, -1.00000000000000 ) );
#139 = DIRECTION( '', ( -1.00000000000000, 0.000000000000000, 0.000000000000000 ) );
#140 = SURFACE_STYLE_FILL_AREA( #184 );
#141 = ORIENTED_EDGE( '', *, *, #182, .T. );
#142 = ORIENTED_EDGE( '', *, *, #185, .T. );
#143 = CARTESIAN_POINT( '', ( 9.00000000000000, 0.000000000000000, 0.499999999999991 ) );
#144 = DIRECTION( '', ( 0.000000000000000, 0.000000000000000, -1.00000000000000 ) );
#145 = DIRECTION( '', ( -1.00000000000000, 0.000000000000000, 0.000000000000000 ) );
#146 = SURFACE_STYLE_FILL_AREA( #186 );
#147 = ORIENTED_EDGE( '', *, *, #187, .F. );
#148 = VERTEX_POINT( '', #188 );
#149 = CARTESIAN_POINT( '', ( 3.49655200626575E-015, 0.000000000000000, 23.0000000000000 ) );
#150 = DIRECTION( '', ( 0.000000000000000, -0.000000000000000, -1.00000000000000 ) );
#151 = DIRECTION( '', ( 0.000000000000000, -1.00000000000000, 0.000000000000000 ) );
#152 = SURFACE_STYLE_FILL_AREA( #189 );
#153 = ORIENTED_EDGE( '', *, *, #183, .T. );
#154 = ORIENTED_EDGE( '', *, *, #190, .F. );
#155 = CARTESIAN_POINT( '', ( 3.49655200626575E-015, 0.000000000000000, 0.000000000000000 ) );
#156 = DIRECTION( '', ( -0.000000000000000, 0.000000000000000, -1.00000000000000 ) );
#157 = DIRECTION( '', ( 0.000000000000000, 1.00000000000000, 0.000000000000000 ) );
#158 = SURFACE_STYLE_FILL_AREA( #191 );
#159 = ORIENTED_EDGE( '', *, *, #192, .F. );
#160 = CARTESIAN_POINT( '', ( 0.000000000000000, 0.000000000000000, 15.5000000000000 ) );
#161 = DIRECTION( '', ( 0.000000000000000, 0.000000000000000, 1.00000000000000 ) );
#162 = DIRECTION( '', ( 1.00000000000000, 0.000000000000000, 0.000000000000000 ) );
#163 = SURFACE_STYLE_FILL_AREA( #193 );
#164 = ORIENTED_EDGE( '', *, *, #187, .T. );
#165 = ORIENTED_EDGE( '', *, *, #190, .T. );
#166 = CARTESIAN_POINT( '', ( 3.49655200626575E-015, 0.000000000000000, 0.000000000000000 ) );
#167 = DIRECTION( '', ( -0.000000000000000, 0.000000000000000, -1.00000000000000 ) );
#168 = DIRECTION( '', ( 0.000000000000000, 1.00000000000000, 0.000000000000000 ) );
#169 = SURFACE_STYLE_FILL_AREA( #194 );
#170 = ORIENTED_EDGE( '', *, *, #185, .F. );
#171 = ORIENTED_EDGE( '', *, *, #195, .F. );
#172 = CARTESIAN_POINT( '', ( 0.000000000000000, 0.000000000000000, 15.5000000000000 ) );
#173 = DIRECTION( '', ( 0.000000000000000, 0.000000000000000, 1.00000000000000 ) );
#174 = DIRECTION( '', ( 1.00000000000000, 0.000000000000000, 0.000000000000000 ) );
#175 = SURFACE_STYLE_FILL_AREA( #196 );
#176 = ORIENTED_EDGE( '', *, *, #195, .T. );
#177 = ORIENTED_EDGE( '', *, *, #192, .T. );
#178 = CARTESIAN_POINT( '', ( 0.000000000000000, 0.000000000000000, 15.7500000000000 ) );
#179 = DIRECTION( '', ( 0.000000000000000, 0.000000000000000, 1.00000000000000 ) );
#180 = DIRECTION( '', ( 1.00000000000000, 0.000000000000000, 0.000000000000000 ) );
#181 = FILL_AREA_STYLE( '', ( #197 ) );
#182 = EDGE_CURVE( '', #198, #198, #199, .F. );
#183 = EDGE_CURVE( '', #200, #200, #201, .T. );
#184 = FILL_AREA_STYLE( '', ( #202 ) );
#185 = EDGE_CURVE( '', #203, #203, #204, .T. );
#186 = FILL_AREA_STYLE( '', ( #205 ) );
#187 = EDGE_CURVE( '', #206, #206, #207, .T. );
#188 = CARTESIAN_POINT( '', ( 3.49655200626575E-015, 0.000000000000000, 25.5164042724874 ) );
#189 = FILL_AREA_STYLE( '', ( #208 ) );
#190 = EDGE_CURVE( '', #209, #209, #210, .T. );
#191 = FILL_AREA_STYLE( '', ( #211 ) );
#192 = EDGE_CURVE( '', #212, #212, #213, .F. );
#193 = FILL_AREA_STYLE( '', ( #214 ) );
#194 = FILL_AREA_STYLE( '', ( #215 ) );
#195 = EDGE_CURVE( '', #216, #216, #217, .F. );
#196 = FILL_AREA_STYLE( '', ( #218 ) );
#197 = FILL_AREA_STYLE_COLOUR( '', #219 );
#198 = VERTEX_POINT( '', #220 );
#199 = CIRCLE( '', #221, 4.68800000000000 );
#200 = VERTEX_POINT( '', #222 );
#201 = CIRCLE( '', #223, 4.18800000000000 );
#202 = FILL_AREA_STYLE_COLOUR( '', #224 );
#203 = VERTEX_POINT( '', #225 );
#204 = CIRCLE( '', #226, 5.56776436282998 );
#205 = FILL_AREA_STYLE_COLOUR( '', #227 );
#206 = VERTEX_POINT( '', #228 );
#207 = CIRCLE( '', #229, 4.18800000000000 );
#208 = FILL_AREA_STYLE_COLOUR( '', #230 );
#209 = VERTEX_POINT( '', #231 );
#210 = CIRCLE( '', #232, 4.18800000000000 );
#211 = FILL_AREA_STYLE_COLOUR( '', #233 );
#212 = VERTEX_POINT( '', #234 );
#213 = CIRCLE( '', #235, 15.9511904983431 );
#214 = FILL_AREA_STYLE_COLOUR( '', #236 );
#215 = FILL_AREA_STYLE_COLOUR( '', #237 );
#216 = VERTEX_POINT( '', #238 );
#217 = CIRCLE( '', #239, 15.9824194601632 );
#218 = FILL_AREA_STYLE_COLOUR( '', #240 );
#219 = COLOUR_RGB( '', 0.200000002980232, 0.200000002980232, 0.200000002980232 );
#220 = CARTESIAN_POINT( '', ( -4.68800000000000, 0.000000000000000, 0.499999999999991 ) );
#221 = AXIS2_PLACEMENT_3D( '', #241, #242, #243 );
#222 = CARTESIAN_POINT( '', ( -4.18800000000000, 0.000000000000000, 1.00000000000000 ) );
#223 = AXIS2_PLACEMENT_3D( '', #244, #245, #246 );
#224 = COLOUR_RGB( '', 0.200000002980232, 0.200000002980232, 0.200000002980232 );
#225 = CARTESIAN_POINT( '', ( -5.56776436282998, 0.000000000000000, 0.499999999999992 ) );
#226 = AXIS2_PLACEMENT_3D( '', #247, #248, #249 );
#227 = COLOUR_RGB( '', 0.200000002980232, 0.200000002980232, 0.200000002980232 );
#228 = CARTESIAN_POINT( '', ( 3.49655200626575E-015, -4.18800000000000, 23.0000000000000 ) );
#229 = AXIS2_PLACEMENT_3D( '', #250, #251, #252 );
#230 = COLOUR_RGB( '', 0.752941191196442, 0.752941191196442, 0.752941191196442 );
#231 = CARTESIAN_POINT( '', ( 3.49655200626575E-015, 4.18800000000000, 20.0000000000000 ) );
#232 = AXIS2_PLACEMENT_3D( '', #253, #254, #255 );
#233 = COLOUR_RGB( '', 0.200000002980232, 0.200000002980232, 0.200000002980232 );
#234 = CARTESIAN_POINT( '', ( 15.9511904983431, 0.000000000000000, 16.7488081060418 ) );
#235 = AXIS2_PLACEMENT_3D( '', #256, #257, #258 );
#236 = COLOUR_RGB( '', 0.200000002980232, 0.200000002980232, 0.200000002980232 );
#237 = COLOUR_RGB( '', 0.200000002980232, 0.200000002980232, 0.200000002980232 );
#238 = CARTESIAN_POINT( '', ( -15.9824194601632, 0.000000000000000, 14.7501545495596 ) );
#239 = AXIS2_PLACEMENT_3D( '', #259, #260, #261 );
#240 = COLOUR_RGB( '', 0.200000002980232, 0.200000002980232, 0.200000002980232 );
#241 = CARTESIAN_POINT( '', ( 3.49655200626575E-015, 0.000000000000000, 0.499999999999991 ) );
#242 = DIRECTION( '', ( 0.000000000000000, 0.000000000000000, -1.00000000000000 ) );
#243 = DIRECTION( '', ( -1.00000000000000, 0.000000000000000, 0.000000000000000 ) );
#244 = CARTESIAN_POINT( '', ( 3.49655200626575E-015, 0.000000000000000, 1.00000000000000 ) );
#245 = DIRECTION( '', ( 0.000000000000000, 0.000000000000000, -1.00000000000000 ) );
#246 = DIRECTION( '', ( -1.00000000000000, 0.000000000000000, 0.000000000000000 ) );
#247 = CARTESIAN_POINT( '', ( 0.000000000000000, 0.000000000000000, 0.499999999999992 ) );
#248 = DIRECTION( '', ( 0.000000000000000, 0.000000000000000, -1.00000000000000 ) );
#249 = DIRECTION( '', ( -1.00000000000000, 0.000000000000000, 0.000000000000000 ) );
#250 = CARTESIAN_POINT( '', ( 3.49655200626575E-015, 0.000000000000000, 23.0000000000000 ) );
#251 = DIRECTION( '', ( 0.000000000000000, 0.000000000000000, 1.00000000000000 ) );
#252 = DIRECTION( '', ( 0.000000000000000, -1.00000000000000, 0.000000000000000 ) );
#253 = CARTESIAN_POINT( '', ( 3.49655200626575E-015, 0.000000000000000, 20.0000000000000 ) );
#254 = DIRECTION( '', ( 0.000000000000000, 0.000000000000000, -1.00000000000000 ) );
#255 = DIRECTION( '', ( 0.000000000000000, 1.00000000000000, 0.000000000000000 ) );
#256 = CARTESIAN_POINT( '', ( 0.000000000000000, 0.000000000000000, 16.7488081060418 ) );
#257 = DIRECTION( '', ( 0.000000000000000, 0.000000000000000, 1.00000000000000 ) );
#258 = DIRECTION( '', ( 1.00000000000000, 0.000000000000000, 0.000000000000000 ) );
#259 = CARTESIAN_POINT( '', ( 0.000000000000000, 0.000000000000000, 14.7501545495596 ) );
#260 = DIRECTION( '', ( 0.000000000000000, 0.000000000000000, -1.00000000000000 ) );
#261 = DIRECTION( '', ( -1.00000000000000, 0.000000000000000, 0.000000000000000 ) );
ENDSEC;
END-ISO-10303-21;
