ISO-10303-21;
HEADER;
FILE_DESCRIPTION( ( 'Unknown' ), '1' );
FILE_NAME( '//SBS2003/HD_Usb/Disegni/08_LIB/Users_3D/PROD_GAMM_3D/PB/6131130_PB60_M10.stp', 'Unknown', ( 'Unknown' ), ( 'Unknown' ), 'PSStep 11.0', 'Unknown', '  ' );
FILE_SCHEMA( ( 'AUTOMOTIVE_DESIGN { 1 0 10303 214 1 1 1 1 }' ) );
ENDSEC;
DATA;
#1 = MECHANICAL_DESIGN_GEOMETRIC_PRESENTATION_REPRESENTATION( ' ', ( #10, #11, #12, #13, #14, #15, #16, #17 ), #6 );
#2 = PRODUCT_DEFINITION_CONTEXT( '', #18, 'design' );
#3 = APPLICATION_PROTOCOL_DEFINITION( 'INTERNATIONAL STANDARD', 'automotive_design', 2001, #18 );
#4 = PRODUCT_CATEGORY_RELATIONSHIP( 'NONE', 'NONE', #19, #20 );
#5 = SHAPE_DEFINITION_REPRESENTATION( #21, #22 );
#6 =  ( GEOMETRIC_REPRESENTATION_CONTEXT( 3 )GLOBAL_UNCERTAINTY_ASSIGNED_CONTEXT( ( #25 ) )GLOBAL_UNIT_ASSIGNED_CONTEXT( ( #27, #28, #29 ) )REPRESENTATION_CONTEXT( 'NONE', 'WORKSPACE' ) );
#10 = STYLED_ITEM( '', ( #31 ), #32 );
#11 = STYLED_ITEM( '', ( #33 ), #34 );
#12 = STYLED_ITEM( '', ( #35 ), #36 );
#13 = STYLED_ITEM( '', ( #37 ), #38 );
#14 = STYLED_ITEM( '', ( #39 ), #40 );
#15 = STYLED_ITEM( '', ( #41 ), #42 );
#16 = STYLED_ITEM( '', ( #43 ), #44 );
#17 = STYLED_ITEM( '', ( #45 ), #46 );
#18 = APPLICATION_CONTEXT( 'core data for automotive mechanical design processes' );
#19 = PRODUCT_CATEGORY( 'part', 'NONE' );
#20 = PRODUCT_RELATED_PRODUCT_CATEGORY( 'detail', ' ', ( #47 ) );
#21 = PRODUCT_DEFINITION_SHAPE( 'NONE', 'NONE', #48 );
#22 = ADVANCED_BREP_SHAPE_REPRESENTATION( '1', ( #49, #50 ), #6 );
#25 = UNCERTAINTY_MEASURE_WITH_UNIT( LENGTH_MEASURE( 0.00100000000000000 ), #27, '', '' );
#27 =  ( CONVERSION_BASED_UNIT( 'MILLIMETRE', #53 )LENGTH_UNIT(  )NAMED_UNIT( #56 ) );
#28 =  ( NAMED_UNIT( #58 )PLANE_ANGLE_UNIT(  )SI_UNIT( $, .RADIAN. ) );
#29 =  ( NAMED_UNIT( #58 )SI_UNIT( $, .STERADIAN. )SOLID_ANGLE_UNIT(  ) );
#31 = PRESENTATION_STYLE_ASSIGNMENT( ( #64 ) );
#32 = ADVANCED_FACE( '', ( #65, #66 ), #67, .T. );
#33 = PRESENTATION_STYLE_ASSIGNMENT( ( #68 ) );
#34 = ADVANCED_FACE( '', ( #69 ), #70, .T. );
#35 = PRESENTATION_STYLE_ASSIGNMENT( ( #71 ) );
#36 = ADVANCED_FACE( '', ( #72, #73 ), #74, .T. );
#37 = PRESENTATION_STYLE_ASSIGNMENT( ( #75 ) );
#38 = ADVANCED_FACE( '', ( #76, #77 ), #78, .F. );
#39 = PRESENTATION_STYLE_ASSIGNMENT( ( #79 ) );
#40 = ADVANCED_FACE( '', ( #80, #81 ), #82, .T. );
#41 = PRESENTATION_STYLE_ASSIGNMENT( ( #83 ) );
#42 = ADVANCED_FACE( '', ( #84, #85 ), #86, .F. );
#43 = PRESENTATION_STYLE_ASSIGNMENT( ( #87 ) );
#44 = ADVANCED_FACE( '', ( #88, #89 ), #90, .F. );
#45 = PRESENTATION_STYLE_ASSIGNMENT( ( #91 ) );
#46 = ADVANCED_FACE( '', ( #92, #93 ), #94, .F. );
#47 = PRODUCT( '1', '1', 'PART-1-DESC', ( #95 ) );
#48 = PRODUCT_DEFINITION( 'NONE', 'NONE', #96, #2 );
#49 = MANIFOLD_SOLID_BREP( '1', #97 );
#50 = AXIS2_PLACEMENT_3D( '', #98, #99, #100 );
#53 = LENGTH_MEASURE_WITH_UNIT( LENGTH_MEASURE( 1.00000000000000 ), #101 );
#56 = DIMENSIONAL_EXPONENTS( 1.00000000000000, 0.000000000000000, 0.000000000000000, 0.000000000000000, 0.000000000000000, 0.000000000000000, 0.000000000000000 );
#58 = DIMENSIONAL_EXPONENTS( 0.000000000000000, 0.000000000000000, 0.000000000000000, 0.000000000000000, 0.000000000000000, 0.000000000000000, 0.000000000000000 );
#64 = SURFACE_STYLE_USAGE( .BOTH., #102 );
#65 = FACE_OUTER_BOUND( '', #103, .T. );
#66 = FACE_OUTER_BOUND( '', #104, .T. );
#67 = TOROIDAL_SURFACE( '', #105, 5.43800000000000, 1.25000000000000 );
#68 = SURFACE_STYLE_USAGE( .BOTH., #106 );
#69 = FACE_OUTER_BOUND( '', #107, .T. );
#70 = SPHERICAL_SURFACE( '', #108, 30.0000000000000 );
#71 = SURFACE_STYLE_USAGE( .BOTH., #109 );
#72 = FACE_BOUND( '', #110, .T. );
#73 = FACE_OUTER_BOUND( '', #111, .T. );
#74 = PLANE( '', #112 );
#75 = SURFACE_STYLE_USAGE( .BOTH., #113 );
#76 = FACE_OUTER_BOUND( '', #114, .T. );
#77 = FACE_OUTER_BOUND( '', #115, .T. );
#78 = CYLINDRICAL_SURFACE( '', #116, 4.18800000000000 );
#79 = SURFACE_STYLE_USAGE( .BOTH., #117 );
#80 = FACE_OUTER_BOUND( '', #118, .T. );
#81 = FACE_OUTER_BOUND( '', #119, .T. );
#82 = SPHERICAL_SURFACE( '', #120, 30.0000000000000 );
#83 = SURFACE_STYLE_USAGE( .BOTH., #121 );
#84 = FACE_OUTER_BOUND( '', #122, .T. );
#85 = FACE_BOUND( '', #123, .T. );
#86 = CONICAL_SURFACE( '', #124, 4.18800000000000, 1.02974425867665 );
#87 = SURFACE_STYLE_USAGE( .BOTH., #125 );
#88 = FACE_OUTER_BOUND( '', #126, .T. );
#89 = FACE_OUTER_BOUND( '', #127, .T. );
#90 = TOROIDAL_SURFACE( '', #128, 30.2500000000000, 1.25000000000000 );
#91 = SURFACE_STYLE_USAGE( .BOTH., #129 );
#92 = FACE_OUTER_BOUND( '', #130, .T. );
#93 = FACE_OUTER_BOUND( '', #131, .T. );
#94 = CYLINDRICAL_SURFACE( '', #132, 4.18800000000000 );
#95 = PRODUCT_CONTEXT( '', #18, 'mechanical' );
#96 = PRODUCT_DEFINITION_FORMATION_WITH_SPECIFIED_SOURCE( ' ', 'NONE', #47, .NOT_KNOWN. );
#97 = CLOSED_SHELL( '', ( #40, #32, #42, #44, #38, #34, #36, #46 ) );
#98 = CARTESIAN_POINT( '', ( 0.000000000000000, 0.000000000000000, 0.000000000000000 ) );
#99 = DIRECTION( '', ( 0.000000000000000, 0.000000000000000, 1.00000000000000 ) );
#100 = DIRECTION( '', ( 1.00000000000000, 0.000000000000000, 0.000000000000000 ) );
#101 =  ( LENGTH_UNIT(  )NAMED_UNIT( #56 )SI_UNIT( .MILLI., .METRE. ) );
#102 = SURFACE_SIDE_STYLE( '', ( #134 ) );
#103 = EDGE_LOOP( '', ( #135 ) );
#104 = EDGE_LOOP( '', ( #136 ) );
#105 = AXIS2_PLACEMENT_3D( '', #137, #138, #139 );
#106 = SURFACE_SIDE_STYLE( '', ( #140 ) );
#107 = EDGE_LOOP( '', ( #141 ) );
#108 = AXIS2_PLACEMENT_3D( '', #142, #143, #144 );
#109 = SURFACE_SIDE_STYLE( '', ( #145 ) );
#110 = EDGE_LOOP( '', ( #146 ) );
#111 = EDGE_LOOP( '', ( #147 ) );
#112 = AXIS2_PLACEMENT_3D( '', #148, #149, #150 );
#113 = SURFACE_SIDE_STYLE( '', ( #151 ) );
#114 = EDGE_LOOP( '', ( #152 ) );
#115 = EDGE_LOOP( '', ( #153 ) );
#116 = AXIS2_PLACEMENT_3D( '', #154, #155, #156 );
#117 = SURFACE_SIDE_STYLE( '', ( #157 ) );
#118 = EDGE_LOOP( '', ( #158 ) );
#119 = EDGE_LOOP( '', ( #159 ) );
#120 = AXIS2_PLACEMENT_3D( '', #160, #161, #162 );
#121 = SURFACE_SIDE_STYLE( '', ( #163 ) );
#122 = EDGE_LOOP( '', ( #164 ) );
#123 = VERTEX_LOOP( '', #165 );
#124 = AXIS2_PLACEMENT_3D( '', #166, #167, #168 );
#125 = SURFACE_SIDE_STYLE( '', ( #169 ) );
#126 = EDGE_LOOP( '', ( #170 ) );
#127 = EDGE_LOOP( '', ( #171 ) );
#128 = AXIS2_PLACEMENT_3D( '', #172, #173, #174 );
#129 = SURFACE_SIDE_STYLE( '', ( #175 ) );
#130 = EDGE_LOOP( '', ( #176 ) );
#131 = EDGE_LOOP( '', ( #177 ) );
#132 = AXIS2_PLACEMENT_3D( '', #178, #179, #180 );
#134 = SURFACE_STYLE_FILL_AREA( #181 );
#135 = ORIENTED_EDGE( '', *, *, #182, .F. );
#136 = ORIENTED_EDGE( '', *, *, #183, .F. );
#137 = CARTESIAN_POINT( '', ( 3.49655200626575E-015, 0.000000000000000, 1.25000000000000 ) );
#138 = DIRECTION( '', ( 0.000000000000000, 0.000000000000000, -1.00000000000000 ) );
#139 = DIRECTION( '', ( -1.00000000000000, 0.000000000000000, 0.000000000000000 ) );
#140 = SURFACE_STYLE_FILL_AREA( #184 );
#141 = ORIENTED_EDGE( '', *, *, #185, .F. );
#142 = CARTESIAN_POINT( '', ( 0.000000000000000, 0.000000000000000, 28.0000000000000 ) );
#143 = DIRECTION( '', ( 0.000000000000000, 0.000000000000000, 1.00000000000000 ) );
#144 = DIRECTION( '', ( 1.00000000000000, 0.000000000000000, 0.000000000000000 ) );
#145 = SURFACE_STYLE_FILL_AREA( #186 );
#146 = ORIENTED_EDGE( '', *, *, #183, .T. );
#147 = ORIENTED_EDGE( '', *, *, #187, .T. );
#148 = CARTESIAN_POINT( '', ( 11.0000000000000, 0.000000000000000, -3.38813178901721E-017 ) );
#149 = DIRECTION( '', ( 0.000000000000000, 0.000000000000000, -1.00000000000000 ) );
#150 = DIRECTION( '', ( -1.00000000000000, 0.000000000000000, 0.000000000000000 ) );
#151 = SURFACE_STYLE_FILL_AREA( #188 );
#152 = ORIENTED_EDGE( '', *, *, #182, .T. );
#153 = ORIENTED_EDGE( '', *, *, #189, .F. );
#154 = CARTESIAN_POINT( '', ( 3.49655200626575E-015, 0.000000000000000, 0.000000000000000 ) );
#155 = DIRECTION( '', ( -0.000000000000000, 0.000000000000000, -1.00000000000000 ) );
#156 = DIRECTION( '', ( 0.000000000000000, 1.00000000000000, 0.000000000000000 ) );
#157 = SURFACE_STYLE_FILL_AREA( #190 );
#158 = ORIENTED_EDGE( '', *, *, #187, .F. );
#159 = ORIENTED_EDGE( '', *, *, #191, .F. );
#160 = CARTESIAN_POINT( '', ( 0.000000000000000, 0.000000000000000, 28.0000000000000 ) );
#161 = DIRECTION( '', ( 0.000000000000000, 0.000000000000000, 1.00000000000000 ) );
#162 = DIRECTION( '', ( 1.00000000000000, 0.000000000000000, 0.000000000000000 ) );
#163 = SURFACE_STYLE_FILL_AREA( #192 );
#164 = ORIENTED_EDGE( '', *, *, #193, .F. );
#165 = VERTEX_POINT( '', #194 );
#166 = CARTESIAN_POINT( '', ( 3.49655200626575E-015, 0.000000000000000, 28.0000000000000 ) );
#167 = DIRECTION( '', ( 0.000000000000000, -0.000000000000000, -1.00000000000000 ) );
#168 = DIRECTION( '', ( 0.000000000000000, -1.00000000000000, 0.000000000000000 ) );
#169 = SURFACE_STYLE_FILL_AREA( #195 );
#170 = ORIENTED_EDGE( '', *, *, #191, .T. );
#171 = ORIENTED_EDGE( '', *, *, #185, .T. );
#172 = CARTESIAN_POINT( '', ( 0.000000000000000, 0.000000000000000, 29.0000000000000 ) );
#173 = DIRECTION( '', ( 0.000000000000000, 0.000000000000000, 1.00000000000000 ) );
#174 = DIRECTION( '', ( 1.00000000000000, 0.000000000000000, 0.000000000000000 ) );
#175 = SURFACE_STYLE_FILL_AREA( #196 );
#176 = ORIENTED_EDGE( '', *, *, #193, .T. );
#177 = ORIENTED_EDGE( '', *, *, #189, .T. );
#178 = CARTESIAN_POINT( '', ( 3.49655200626575E-015, 0.000000000000000, 0.000000000000000 ) );
#179 = DIRECTION( '', ( -0.000000000000000, 0.000000000000000, -1.00000000000000 ) );
#180 = DIRECTION( '', ( 0.000000000000000, 1.00000000000000, 0.000000000000000 ) );
#181 = FILL_AREA_STYLE( '', ( #197 ) );
#182 = EDGE_CURVE( '', #198, #198, #199, .T. );
#183 = EDGE_CURVE( '', #200, #200, #201, .F. );
#184 = FILL_AREA_STYLE( '', ( #202 ) );
#185 = EDGE_CURVE( '', #203, #203, #204, .F. );
#186 = FILL_AREA_STYLE( '', ( #205 ) );
#187 = EDGE_CURVE( '', #206, #206, #207, .T. );
#188 = FILL_AREA_STYLE( '', ( #208 ) );
#189 = EDGE_CURVE( '', #209, #209, #210, .T. );
#190 = FILL_AREA_STYLE( '', ( #211 ) );
#191 = EDGE_CURVE( '', #212, #212, #213, .F. );
#192 = FILL_AREA_STYLE( '', ( #214 ) );
#193 = EDGE_CURVE( '', #215, #215, #216, .T. );
#194 = CARTESIAN_POINT( '', ( 3.49655200626575E-015, 0.000000000000000, 30.5164042724874 ) );
#195 = FILL_AREA_STYLE( '', ( #217 ) );
#196 = FILL_AREA_STYLE( '', ( #218 ) );
#197 = FILL_AREA_STYLE_COLOUR( '', #219 );
#198 = VERTEX_POINT( '', #220 );
#199 = CIRCLE( '', #221, 4.18800000000000 );
#200 = VERTEX_POINT( '', #222 );
#201 = CIRCLE( '', #223, 5.43800000000000 );
#202 = FILL_AREA_STYLE_COLOUR( '', #224 );
#203 = VERTEX_POINT( '', #225 );
#204 = CIRCLE( '', #226, 29.9188319656778 );
#205 = FILL_AREA_STYLE_COLOUR( '', #227 );
#206 = VERTEX_POINT( '', #228 );
#207 = CIRCLE( '', #229, 10.7703296142690 );
#208 = FILL_AREA_STYLE_COLOUR( '', #230 );
#209 = VERTEX_POINT( '', #231 );
#210 = CIRCLE( '', #232, 4.18800000000000 );
#211 = FILL_AREA_STYLE_COLOUR( '', #233 );
#212 = VERTEX_POINT( '', #234 );
#213 = CIRCLE( '', #235, 29.9991594377472 );
#214 = FILL_AREA_STYLE_COLOUR( '', #236 );
#215 = VERTEX_POINT( '', #237 );
#216 = CIRCLE( '', #238, 4.18800000000000 );
#217 = FILL_AREA_STYLE_COLOUR( '', #239 );
#218 = FILL_AREA_STYLE_COLOUR( '', #240 );
#219 = COLOUR_RGB( '', 0.200000002980232, 0.200000002980232, 0.200000002980232 );
#220 = CARTESIAN_POINT( '', ( -4.18800000000000, 0.000000000000000, 1.25000000000000 ) );
#221 = AXIS2_PLACEMENT_3D( '', #241, #242, #243 );
#222 = CARTESIAN_POINT( '', ( -5.43800000000000, 0.000000000000000, 0.000000000000000 ) );
#223 = AXIS2_PLACEMENT_3D( '', #244, #245, #246 );
#224 = COLOUR_RGB( '', 0.200000002980232, 0.200000002980232, 0.200000002980232 );
#225 = CARTESIAN_POINT( '', ( 29.9188319656778, 0.000000000000000, 30.2053330382479 ) );
#226 = AXIS2_PLACEMENT_3D( '', #247, #248, #249 );
#227 = COLOUR_RGB( '', 0.200000002980232, 0.200000002980232, 0.200000002980232 );
#228 = CARTESIAN_POINT( '', ( -10.7703296142690, 0.000000000000000, 0.000000000000000 ) );
#229 = AXIS2_PLACEMENT_3D( '', #250, #251, #252 );
#230 = COLOUR_RGB( '', 0.752941191196442, 0.752941191196442, 0.752941191196442 );
#231 = CARTESIAN_POINT( '', ( 3.49655200626575E-015, 4.18800000000000, 25.0000000000000 ) );
#232 = AXIS2_PLACEMENT_3D( '', #253, #254, #255 );
#233 = COLOUR_RGB( '', 0.200000002980232, 0.200000002980232, 0.200000002980232 );
#234 = CARTESIAN_POINT( '', ( -29.9991594377472, 0.000000000000000, 27.7754270081462 ) );
#235 = AXIS2_PLACEMENT_3D( '', #256, #257, #258 );
#236 = COLOUR_RGB( '', 0.200000002980232, 0.200000002980232, 0.200000002980232 );
#237 = CARTESIAN_POINT( '', ( 3.49655200626575E-015, -4.18800000000000, 28.0000000000000 ) );
#238 = AXIS2_PLACEMENT_3D( '', #259, #260, #261 );
#239 = COLOUR_RGB( '', 0.200000002980232, 0.200000002980232, 0.200000002980232 );
#240 = COLOUR_RGB( '', 0.200000002980232, 0.200000002980232, 0.200000002980232 );
#241 = CARTESIAN_POINT( '', ( 3.49655200626575E-015, 0.000000000000000, 1.25000000000000 ) );
#242 = DIRECTION( '', ( 0.000000000000000, 0.000000000000000, -1.00000000000000 ) );
#243 = DIRECTION( '', ( -1.00000000000000, 0.000000000000000, 0.000000000000000 ) );
#244 = CARTESIAN_POINT( '', ( 3.49655200626575E-015, 0.000000000000000, 0.000000000000000 ) );
#245 = DIRECTION( '', ( 0.000000000000000, 0.000000000000000, -1.00000000000000 ) );
#246 = DIRECTION( '', ( -1.00000000000000, 0.000000000000000, 0.000000000000000 ) );
#247 = CARTESIAN_POINT( '', ( 0.000000000000000, 0.000000000000000, 30.2053330382479 ) );
#248 = DIRECTION( '', ( 0.000000000000000, 0.000000000000000, 1.00000000000000 ) );
#249 = DIRECTION( '', ( 1.00000000000000, 0.000000000000000, 0.000000000000000 ) );
#250 = CARTESIAN_POINT( '', ( 0.000000000000000, 0.000000000000000, 0.000000000000000 ) );
#251 = DIRECTION( '', ( 0.000000000000000, 0.000000000000000, -1.00000000000000 ) );
#252 = DIRECTION( '', ( -1.00000000000000, 0.000000000000000, 0.000000000000000 ) );
#253 = CARTESIAN_POINT( '', ( 3.49655200626575E-015, 0.000000000000000, 25.0000000000000 ) );
#254 = DIRECTION( '', ( 0.000000000000000, 0.000000000000000, -1.00000000000000 ) );
#255 = DIRECTION( '', ( 0.000000000000000, 1.00000000000000, 0.000000000000000 ) );
#256 = CARTESIAN_POINT( '', ( 0.000000000000000, 0.000000000000000, 27.7754270081462 ) );
#257 = DIRECTION( '', ( 0.000000000000000, 0.000000000000000, -1.00000000000000 ) );
#258 = DIRECTION( '', ( -1.00000000000000, 0.000000000000000, 0.000000000000000 ) );
#259 = CARTESIAN_POINT( '', ( 3.49655200626575E-015, 0.000000000000000, 28.0000000000000 ) );
#260 = DIRECTION( '', ( 0.000000000000000, 0.000000000000000, 1.00000000000000 ) );
#261 = DIRECTION( '', ( 0.000000000000000, -1.00000000000000, 0.000000000000000 ) );
ENDSEC;
END-ISO-10303-21;
