ISO-10303-21;
HEADER;
FILE_DESCRIPTION( ( 'Unknown' ), '1' );
FILE_NAME( '//SBS2003/HD_Usb/Disegni/10_GAMM_CD/2- Gamm_STEP/03 - MANOPOLE/03_19.1-PBO/6132005_PBO19_M04.stp', 'Unknown', ( 'Unknown' ), ( 'Unknown' ), 'PSStep 11.0', 'Unknown', '  ' );
FILE_SCHEMA( ( 'AUTOMOTIVE_DESIGN { 1 0 10303 214 1 1 1 1 }' ) );
ENDSEC;
DATA;
#1 = MECHANICAL_DESIGN_GEOMETRIC_PRESENTATION_REPRESENTATION( ' ', ( #10, #11, #12, #13, #14, #15, #16, #17, #18 ), #6 );
#2 = PRODUCT_DEFINITION_CONTEXT( '', #19, 'design' );
#3 = APPLICATION_PROTOCOL_DEFINITION( 'INTERNATIONAL STANDARD', 'automotive_design', 2001, #19 );
#4 = PRODUCT_CATEGORY_RELATIONSHIP( 'NONE', 'NONE', #20, #21 );
#5 = SHAPE_DEFINITION_REPRESENTATION( #22, #23 );
#6 =  ( GEOMETRIC_REPRESENTATION_CONTEXT( 3 )GLOBAL_UNCERTAINTY_ASSIGNED_CONTEXT( ( #26 ) )GLOBAL_UNIT_ASSIGNED_CONTEXT( ( #28, #29, #30 ) )REPRESENTATION_CONTEXT( 'NONE', 'WORKSPACE' ) );
#10 = STYLED_ITEM( '', ( #32 ), #33 );
#11 = STYLED_ITEM( '', ( #34 ), #35 );
#12 = STYLED_ITEM( '', ( #36 ), #37 );
#13 = STYLED_ITEM( '', ( #38 ), #39 );
#14 = STYLED_ITEM( '', ( #40 ), #41 );
#15 = STYLED_ITEM( '', ( #42 ), #43 );
#16 = STYLED_ITEM( '', ( #44 ), #45 );
#17 = STYLED_ITEM( '', ( #46 ), #47 );
#18 = STYLED_ITEM( '', ( #48 ), #49 );
#19 = APPLICATION_CONTEXT( 'core data for automotive mechanical design processes' );
#20 = PRODUCT_CATEGORY( 'part', 'NONE' );
#21 = PRODUCT_RELATED_PRODUCT_CATEGORY( 'detail', ' ', ( #50 ) );
#22 = PRODUCT_DEFINITION_SHAPE( 'NONE', 'NONE', #51 );
#23 = ADVANCED_BREP_SHAPE_REPRESENTATION( '6132005', ( #52, #53 ), #6 );
#26 = UNCERTAINTY_MEASURE_WITH_UNIT( LENGTH_MEASURE( 0.00100000000000000 ), #28, '', '' );
#28 =  ( CONVERSION_BASED_UNIT( 'MILLIMETRE', #56 )LENGTH_UNIT(  )NAMED_UNIT( #59 ) );
#29 =  ( NAMED_UNIT( #61 )PLANE_ANGLE_UNIT(  )SI_UNIT( $, .RADIAN. ) );
#30 =  ( NAMED_UNIT( #61 )SI_UNIT( $, .STERADIAN. )SOLID_ANGLE_UNIT(  ) );
#32 = PRESENTATION_STYLE_ASSIGNMENT( ( #67 ) );
#33 = ADVANCED_FACE( '', ( #68, #69 ), #70, .T. );
#34 = PRESENTATION_STYLE_ASSIGNMENT( ( #71 ) );
#35 = ADVANCED_FACE( '', ( #72, #73 ), #74, .F. );
#36 = PRESENTATION_STYLE_ASSIGNMENT( ( #75 ) );
#37 = ADVANCED_FACE( '', ( #76, #77 ), #78, .F. );
#38 = PRESENTATION_STYLE_ASSIGNMENT( ( #79 ) );
#39 = ADVANCED_FACE( '', ( #80 ), #81, .T. );
#40 = PRESENTATION_STYLE_ASSIGNMENT( ( #82 ) );
#41 = ADVANCED_FACE( '', ( #83, #84 ), #85, .T. );
#42 = PRESENTATION_STYLE_ASSIGNMENT( ( #86 ) );
#43 = ADVANCED_FACE( '', ( #87, #88 ), #89, .F. );
#44 = PRESENTATION_STYLE_ASSIGNMENT( ( #90 ) );
#45 = ADVANCED_FACE( '', ( #91, #92 ), #93, .F. );
#46 = PRESENTATION_STYLE_ASSIGNMENT( ( #94 ) );
#47 = ADVANCED_FACE( '', ( #95, #96 ), #97, .F. );
#48 = PRESENTATION_STYLE_ASSIGNMENT( ( #98 ) );
#49 = ADVANCED_FACE( '', ( #99, #100 ), #101, .F. );
#50 = PRODUCT( '6132005', '6132005', 'PART-6132005-DESC', ( #102 ) );
#51 = PRODUCT_DEFINITION( 'NONE', 'NONE', #103, #2 );
#52 = MANIFOLD_SOLID_BREP( '6132005', #104 );
#53 = AXIS2_PLACEMENT_3D( '', #105, #106, #107 );
#56 = LENGTH_MEASURE_WITH_UNIT( LENGTH_MEASURE( 1.00000000000000 ), #108 );
#59 = DIMENSIONAL_EXPONENTS( 1.00000000000000, 0.000000000000000, 0.000000000000000, 0.000000000000000, 0.000000000000000, 0.000000000000000, 0.000000000000000 );
#61 = DIMENSIONAL_EXPONENTS( 0.000000000000000, 0.000000000000000, 0.000000000000000, 0.000000000000000, 0.000000000000000, 0.000000000000000, 0.000000000000000 );
#67 = SURFACE_STYLE_USAGE( .BOTH., #109 );
#68 = FACE_OUTER_BOUND( '', #110, .T. );
#69 = FACE_OUTER_BOUND( '', #111, .T. );
#70 = SPHERICAL_SURFACE( '', #112, 9.50000000000000 );
#71 = SURFACE_STYLE_USAGE( .BOTH., #113 );
#72 = FACE_OUTER_BOUND( '', #114, .T. );
#73 = FACE_OUTER_BOUND( '', #115, .T. );
#74 = TOROIDAL_SURFACE( '', #116, 9.50000000000000, 0.500000000000000 );
#75 = SURFACE_STYLE_USAGE( .BOTH., #117 );
#76 = FACE_BOUND( '', #118, .T. );
#77 = FACE_OUTER_BOUND( '', #119, .T. );
#78 = PLANE( '', #120 );
#79 = SURFACE_STYLE_USAGE( .BOTH., #121 );
#80 = FACE_OUTER_BOUND( '', #122, .T. );
#81 = SPHERICAL_SURFACE( '', #123, 9.50000000000000 );
#82 = SURFACE_STYLE_USAGE( .BOTH., #124 );
#83 = FACE_OUTER_BOUND( '', #125, .T. );
#84 = FACE_BOUND( '', #126, .T. );
#85 = PLANE( '', #127 );
#86 = SURFACE_STYLE_USAGE( .BOTH., #128 );
#87 = FACE_BOUND( '', #129, .T. );
#88 = FACE_OUTER_BOUND( '', #130, .T. );
#89 = CONICAL_SURFACE( '', #131, 2.12100000000000, 0.785398163397448 );
#90 = SURFACE_STYLE_USAGE( .BOTH., #132 );
#91 = FACE_OUTER_BOUND( '', #133, .T. );
#92 = FACE_OUTER_BOUND( '', #134, .T. );
#93 = CYLINDRICAL_SURFACE( '', #135, 3.00000000000000 );
#94 = SURFACE_STYLE_USAGE( .BOTH., #136 );
#95 = FACE_OUTER_BOUND( '', #137, .T. );
#96 = FACE_BOUND( '', #138, .T. );
#97 = CONICAL_SURFACE( '', #139, 1.62100000000000, 1.02974425867665 );
#98 = SURFACE_STYLE_USAGE( .BOTH., #140 );
#99 = FACE_OUTER_BOUND( '', #141, .T. );
#100 = FACE_OUTER_BOUND( '', #142, .T. );
#101 = CYLINDRICAL_SURFACE( '', #143, 1.62100000000000 );
#102 = PRODUCT_CONTEXT( '', #19, 'mechanical' );
#103 = PRODUCT_DEFINITION_FORMATION_WITH_SPECIFIED_SOURCE( ' ', 'NONE', #50, .NOT_KNOWN. );
#104 = CLOSED_SHELL( '', ( #45, #39, #47, #43, #49, #37, #41, #33, #35 ) );
#105 = CARTESIAN_POINT( '', ( 0.000000000000000, 0.000000000000000, 0.000000000000000 ) );
#106 = DIRECTION( '', ( 0.000000000000000, 0.000000000000000, 1.00000000000000 ) );
#107 = DIRECTION( '', ( 1.00000000000000, 0.000000000000000, 0.000000000000000 ) );
#108 =  ( LENGTH_UNIT(  )NAMED_UNIT( #59 )SI_UNIT( .MILLI., .METRE. ) );
#109 = SURFACE_SIDE_STYLE( '', ( #145 ) );
#110 = EDGE_LOOP( '', ( #146 ) );
#111 = EDGE_LOOP( '', ( #147 ) );
#112 = AXIS2_PLACEMENT_3D( '', #148, #149, #150 );
#113 = SURFACE_SIDE_STYLE( '', ( #151 ) );
#114 = EDGE_LOOP( '', ( #152 ) );
#115 = EDGE_LOOP( '', ( #153 ) );
#116 = AXIS2_PLACEMENT_3D( '', #154, #155, #156 );
#117 = SURFACE_SIDE_STYLE( '', ( #157 ) );
#118 = EDGE_LOOP( '', ( #158 ) );
#119 = EDGE_LOOP( '', ( #159 ) );
#120 = AXIS2_PLACEMENT_3D( '', #160, #161, #162 );
#121 = SURFACE_SIDE_STYLE( '', ( #163 ) );
#122 = EDGE_LOOP( '', ( #164 ) );
#123 = AXIS2_PLACEMENT_3D( '', #165, #166, #167 );
#124 = SURFACE_SIDE_STYLE( '', ( #168 ) );
#125 = EDGE_LOOP( '', ( #169 ) );
#126 = EDGE_LOOP( '', ( #170 ) );
#127 = AXIS2_PLACEMENT_3D( '', #171, #172, #173 );
#128 = SURFACE_SIDE_STYLE( '', ( #174 ) );
#129 = EDGE_LOOP( '', ( #175 ) );
#130 = EDGE_LOOP( '', ( #176 ) );
#131 = AXIS2_PLACEMENT_3D( '', #177, #178, #179 );
#132 = SURFACE_SIDE_STYLE( '', ( #180 ) );
#133 = EDGE_LOOP( '', ( #181 ) );
#134 = EDGE_LOOP( '', ( #182 ) );
#135 = AXIS2_PLACEMENT_3D( '', #183, #184, #185 );
#136 = SURFACE_SIDE_STYLE( '', ( #186 ) );
#137 = EDGE_LOOP( '', ( #187 ) );
#138 = VERTEX_LOOP( '', #188 );
#139 = AXIS2_PLACEMENT_3D( '', #189, #190, #191 );
#140 = SURFACE_SIDE_STYLE( '', ( #192 ) );
#141 = EDGE_LOOP( '', ( #193 ) );
#142 = EDGE_LOOP( '', ( #194 ) );
#143 = AXIS2_PLACEMENT_3D( '', #195, #196, #197 );
#145 = SURFACE_STYLE_FILL_AREA( #198 );
#146 = ORIENTED_EDGE( '', *, *, #199, .F. );
#147 = ORIENTED_EDGE( '', *, *, #200, .F. );
#148 = CARTESIAN_POINT( '', ( 0.000000000000000, 0.000000000000000, 8.50000000000000 ) );
#149 = DIRECTION( '', ( 0.000000000000000, 0.000000000000000, 1.00000000000000 ) );
#150 = DIRECTION( '', ( 1.00000000000000, 0.000000000000000, 0.000000000000000 ) );
#151 = SURFACE_STYLE_FILL_AREA( #201 );
#152 = ORIENTED_EDGE( '', *, *, #200, .T. );
#153 = ORIENTED_EDGE( '', *, *, #202, .T. );
#154 = CARTESIAN_POINT( '', ( 0.000000000000000, 0.000000000000000, 9.00000000000000 ) );
#155 = DIRECTION( '', ( 0.000000000000000, 0.000000000000000, 1.00000000000000 ) );
#156 = DIRECTION( '', ( 1.00000000000000, 0.000000000000000, 0.000000000000000 ) );
#157 = SURFACE_STYLE_FILL_AREA( #203 );
#158 = ORIENTED_EDGE( '', *, *, #204, .T. );
#159 = ORIENTED_EDGE( '', *, *, #205, .F. );
#160 = CARTESIAN_POINT( '', ( 2.49456252345370E-015, -1.52742855811429E-031, 0.0500000000000000 ) );
#161 = DIRECTION( '', ( 8.29005515999677E-017, -5.07602711123502E-033, 1.00000000000000 ) );
#162 = DIRECTION( '', ( -1.00000000000000, 0.000000000000000, 8.29005515999677E-017 ) );
#163 = SURFACE_STYLE_FILL_AREA( #206 );
#164 = ORIENTED_EDGE( '', *, *, #202, .F. );
#165 = CARTESIAN_POINT( '', ( 0.000000000000000, 0.000000000000000, 8.50000000000000 ) );
#166 = DIRECTION( '', ( 0.000000000000000, 0.000000000000000, 1.00000000000000 ) );
#167 = DIRECTION( '', ( 1.00000000000000, 0.000000000000000, 0.000000000000000 ) );
#168 = SURFACE_STYLE_FILL_AREA( #207 );
#169 = ORIENTED_EDGE( '', *, *, #199, .T. );
#170 = ORIENTED_EDGE( '', *, *, #208, .T. );
#171 = CARTESIAN_POINT( '', ( 4.50000000000000, 0.000000000000000, -6.77626357803441E-017 ) );
#172 = DIRECTION( '', ( 0.000000000000000, 0.000000000000000, -1.00000000000000 ) );
#173 = DIRECTION( '', ( -1.00000000000000, 0.000000000000000, 0.000000000000000 ) );
#174 = SURFACE_STYLE_FILL_AREA( #209 );
#175 = ORIENTED_EDGE( '', *, *, #210, .F. );
#176 = ORIENTED_EDGE( '', *, *, #204, .F. );
#177 = CARTESIAN_POINT( '', ( -4.39559605835199E-016, -3.32479775785894E-032, 0.0500000000000000 ) );
#178 = DIRECTION( '', ( -8.29005515999676E-017, 5.07602711123502E-033, -1.00000000000000 ) );
#179 = DIRECTION( '', ( 1.00000000000000, 0.000000000000000, -8.29005515999676E-017 ) );
#180 = SURFACE_STYLE_FILL_AREA( #211 );
#181 = ORIENTED_EDGE( '', *, *, #208, .F. );
#182 = ORIENTED_EDGE( '', *, *, #205, .T. );
#183 = CARTESIAN_POINT( '', ( 0.000000000000000, 0.000000000000000, 57.1500000000000 ) );
#184 = DIRECTION( '', ( -0.000000000000000, -0.000000000000000, -1.00000000000000 ) );
#185 = DIRECTION( '', ( 1.00000000000000, 0.000000000000000, 0.000000000000000 ) );
#186 = SURFACE_STYLE_FILL_AREA( #212 );
#187 = ORIENTED_EDGE( '', *, *, #213, .F. );
#188 = VERTEX_POINT( '', #214 );
#189 = CARTESIAN_POINT( '', ( 4.33052009549303E-016, -8.66782640095429E-032, 10.5760049365563 ) );
#190 = DIRECTION( '', ( -8.29005515999677E-017, 5.07602711123502E-033, -1.00000000000000 ) );
#191 = DIRECTION( '', ( -1.00000000000000, 0.000000000000000, 8.29005515999677E-017 ) );
#192 = SURFACE_STYLE_FILL_AREA( #215 );
#193 = ORIENTED_EDGE( '', *, *, #210, .T. );
#194 = ORIENTED_EDGE( '', *, *, #213, .T. );
#195 = CARTESIAN_POINT( '', ( -4.39559605835199E-016, -3.32479775785894E-032, 0.0500000000000000 ) );
#196 = DIRECTION( '', ( -8.29005515999677E-017, 5.07602711123502E-033, -1.00000000000000 ) );
#197 = DIRECTION( '', ( 1.00000000000000, 0.000000000000000, -8.29005515999677E-017 ) );
#198 = FILL_AREA_STYLE( '', ( #216 ) );
#199 = EDGE_CURVE( '', #217, #217, #218, .T. );
#200 = EDGE_CURVE( '', #219, #219, #220, .F. );
#201 = FILL_AREA_STYLE( '', ( #221 ) );
#202 = EDGE_CURVE( '', #222, #222, #223, .F. );
#203 = FILL_AREA_STYLE( '', ( #224 ) );
#204 = EDGE_CURVE( '', #225, #225, #226, .T. );
#205 = EDGE_CURVE( '', #227, #227, #228, .T. );
#206 = FILL_AREA_STYLE( '', ( #229 ) );
#207 = FILL_AREA_STYLE( '', ( #230 ) );
#208 = EDGE_CURVE( '', #231, #231, #232, .T. );
#209 = FILL_AREA_STYLE( '', ( #233 ) );
#210 = EDGE_CURVE( '', #234, #234, #235, .F. );
#211 = FILL_AREA_STYLE( '', ( #236 ) );
#212 = FILL_AREA_STYLE( '', ( #237 ) );
#213 = EDGE_CURVE( '', #238, #238, #239, .T. );
#214 = CARTESIAN_POINT( '', ( 5.13796737564429E-016, -9.16222893577920E-032, 11.5500000000000 ) );
#215 = FILL_AREA_STYLE( '', ( #240 ) );
#216 = FILL_AREA_STYLE_COLOUR( '', #241 );
#217 = VERTEX_POINT( '', #242 );
#218 = CIRCLE( '', #243, 4.24264068711931 );
#219 = VERTEX_POINT( '', #244 );
#220 = CIRCLE( '', #245, 9.50000000000035 );
#221 = FILL_AREA_STYLE_COLOUR( '', #246 );
#222 = VERTEX_POINT( '', #247 );
#223 = CIRCLE( '', #248, 9.44751381215435 );
#224 = FILL_AREA_STYLE_COLOUR( '', #249 );
#225 = VERTEX_POINT( '', #250 );
#226 = CIRCLE( '', #251, 2.12100000000000 );
#227 = VERTEX_POINT( '', #252 );
#228 = CIRCLE( '', #253, 3.00000000000000 );
#229 = FILL_AREA_STYLE_COLOUR( '', #254 );
#230 = FILL_AREA_STYLE_COLOUR( '', #255 );
#231 = VERTEX_POINT( '', #256 );
#232 = CIRCLE( '', #257, 3.00000000000000 );
#233 = FILL_AREA_STYLE_COLOUR( '', #258 );
#234 = VERTEX_POINT( '', #259 );
#235 = CIRCLE( '', #260, 1.62100000000000 );
#236 = FILL_AREA_STYLE_COLOUR( '', #261 );
#237 = FILL_AREA_STYLE_COLOUR( '', #262 );
#238 = VERTEX_POINT( '', #263 );
#239 = CIRCLE( '', #264, 1.62100000000000 );
#240 = FILL_AREA_STYLE_COLOUR( '', #265 );
#241 = COLOUR_RGB( '', 0.200000002980232, 0.200000002980232, 0.200000002980232 );
#242 = CARTESIAN_POINT( '', ( -4.24264068711931, 0.000000000000000, 0.000000000000000 ) );
#243 = AXIS2_PLACEMENT_3D( '', #266, #267, #268 );
#244 = CARTESIAN_POINT( '', ( -9.50000000000035, 0.000000000000000, 8.49999999999340 ) );
#245 = AXIS2_PLACEMENT_3D( '', #269, #270, #271 );
#246 = COLOUR_RGB( '', 0.200000002980232, 0.200000002980232, 0.200000002980232 );
#247 = CARTESIAN_POINT( '', ( 9.44751381215435, 0.000000000000000, 9.49723756906732 ) );
#248 = AXIS2_PLACEMENT_3D( '', #272, #273, #274 );
#249 = COLOUR_RGB( '', 0.666666686534882, 0.400000005960464, 0.133333340287209 );
#250 = CARTESIAN_POINT( '', ( -2.12100000000000, -3.32479775785894E-032, 0.0500000000000002 ) );
#251 = AXIS2_PLACEMENT_3D( '', #275, #276, #277 );
#252 = CARTESIAN_POINT( '', ( -3.00000000000000, -2.53801355561747E-034, 0.0500000000000003 ) );
#253 = AXIS2_PLACEMENT_3D( '', #278, #279, #280 );
#254 = COLOUR_RGB( '', 0.200000002980232, 0.200000002980232, 0.200000002980232 );
#255 = COLOUR_RGB( '', 0.200000002980232, 0.200000002980232, 0.200000002980232 );
#256 = CARTESIAN_POINT( '', ( 3.00000000000000, 0.000000000000000, 0.000000000000000 ) );
#257 = AXIS2_PLACEMENT_3D( '', #281, #282, #283 );
#258 = COLOUR_RGB( '', 0.666666686534882, 0.400000005960464, 0.133333340287209 );
#259 = CARTESIAN_POINT( '', ( -1.62100000000000, -3.57859911342069E-032, 0.550000000000000 ) );
#260 = AXIS2_PLACEMENT_3D( '', #284, #285, #286 );
#261 = COLOUR_RGB( '', 0.200000002980232, 0.200000002980232, 0.200000002980232 );
#262 = COLOUR_RGB( '', 0.666666686534882, 0.400000005960464, 0.133333340287209 );
#263 = CARTESIAN_POINT( '', ( -1.62100000000000, -8.66782640095429E-032, 10.5760049365563 ) );
#264 = AXIS2_PLACEMENT_3D( '', #287, #288, #289 );
#265 = COLOUR_RGB( '', 0.752941191196442, 0.752941191196442, 0.752941191196442 );
#266 = CARTESIAN_POINT( '', ( 0.000000000000000, 0.000000000000000, 0.000000000000000 ) );
#267 = DIRECTION( '', ( 0.000000000000000, 0.000000000000000, -1.00000000000000 ) );
#268 = DIRECTION( '', ( -1.00000000000000, 0.000000000000000, 0.000000000000000 ) );
#269 = CARTESIAN_POINT( '', ( 0.000000000000000, 0.000000000000000, 8.49999999999340 ) );
#270 = DIRECTION( '', ( 0.000000000000000, 0.000000000000000, -1.00000000000000 ) );
#271 = DIRECTION( '', ( -1.00000000000000, 0.000000000000000, 0.000000000000000 ) );
#272 = CARTESIAN_POINT( '', ( 0.000000000000000, 0.000000000000000, 9.49723756906732 ) );
#273 = DIRECTION( '', ( 0.000000000000000, 0.000000000000000, 1.00000000000000 ) );
#274 = DIRECTION( '', ( 1.00000000000000, 0.000000000000000, 0.000000000000000 ) );
#275 = CARTESIAN_POINT( '', ( -4.39559605835199E-016, -3.32479775785894E-032, 0.0500000000000000 ) );
#276 = DIRECTION( '', ( 8.29005515999677E-017, -5.07602711123502E-033, 1.00000000000000 ) );
#277 = DIRECTION( '', ( -1.00000000000000, 0.000000000000000, 8.29005515999677E-017 ) );
#278 = CARTESIAN_POINT( '', ( 4.14502757999842E-018, -2.53801355561747E-034, 0.0500000000000000 ) );
#279 = DIRECTION( '', ( 8.29005515999677E-017, -5.07602711123502E-033, 1.00000000000000 ) );
#280 = DIRECTION( '', ( -1.00000000000000, 0.000000000000000, 8.29005515999677E-017 ) );
#281 = CARTESIAN_POINT( '', ( 0.000000000000000, 0.000000000000000, 0.000000000000000 ) );
#282 = DIRECTION( '', ( 0.000000000000000, 0.000000000000000, 1.00000000000000 ) );
#283 = DIRECTION( '', ( 1.00000000000000, 0.000000000000000, 0.000000000000000 ) );
#284 = CARTESIAN_POINT( '', ( -3.98109330035216E-016, -3.57859911342069E-032, 0.550000000000000 ) );
#285 = DIRECTION( '', ( 8.29005515999676E-017, -5.07602711123502E-033, 1.00000000000000 ) );
#286 = DIRECTION( '', ( -1.00000000000000, 0.000000000000000, 8.29005515999676E-017 ) );
#287 = CARTESIAN_POINT( '', ( 4.33052009549303E-016, -8.66782640095429E-032, 10.5760049365563 ) );
#288 = DIRECTION( '', ( 8.29005515999677E-017, -5.07602711123502E-033, 1.00000000000000 ) );
#289 = DIRECTION( '', ( -1.00000000000000, 0.000000000000000, 8.29005515999677E-017 ) );
ENDSEC;
END-ISO-10303-21;
