ISO-10303-21;
HEADER;
FILE_DESCRIPTION( ( 'Unknown' ), '1' );
FILE_NAME( '//SBS2003/HD_Usb/Disegni/10_GAMM_CD/2- Gamm_STEP/03 - MANOPOLE/03_19.1-PBO/6132020_PBO25_M06.stp', 'Unknown', ( 'Unknown' ), ( 'Unknown' ), 'PSStep 11.0', 'Unknown', '  ' );
FILE_SCHEMA( ( 'AUTOMOTIVE_DESIGN { 1 0 10303 214 1 1 1 1 }' ) );
ENDSEC;
DATA;
#1 = MECHANICAL_DESIGN_GEOMETRIC_PRESENTATION_REPRESENTATION( ' ', ( #10, #11, #12, #13, #14, #15, #16, #17, #18, #19 ), #6 );
#2 = PRODUCT_DEFINITION_CONTEXT( '', #20, 'design' );
#3 = APPLICATION_PROTOCOL_DEFINITION( 'INTERNATIONAL STANDARD', 'automotive_design', 2001, #20 );
#4 = PRODUCT_CATEGORY_RELATIONSHIP( 'NONE', 'NONE', #21, #22 );
#5 = SHAPE_DEFINITION_REPRESENTATION( #23, #24 );
#6 =  ( GEOMETRIC_REPRESENTATION_CONTEXT( 3 )GLOBAL_UNCERTAINTY_ASSIGNED_CONTEXT( ( #27 ) )GLOBAL_UNIT_ASSIGNED_CONTEXT( ( #29, #30, #31 ) )REPRESENTATION_CONTEXT( 'NONE', 'WORKSPACE' ) );
#10 = STYLED_ITEM( '', ( #33 ), #34 );
#11 = STYLED_ITEM( '', ( #35 ), #36 );
#12 = STYLED_ITEM( '', ( #37 ), #38 );
#13 = STYLED_ITEM( '', ( #39 ), #40 );
#14 = STYLED_ITEM( '', ( #41 ), #42 );
#15 = STYLED_ITEM( '', ( #43 ), #44 );
#16 = STYLED_ITEM( '', ( #45 ), #46 );
#17 = STYLED_ITEM( '', ( #47 ), #48 );
#18 = STYLED_ITEM( '', ( #49 ), #50 );
#19 = STYLED_ITEM( '', ( #51 ), #52 );
#20 = APPLICATION_CONTEXT( 'core data for automotive mechanical design processes' );
#21 = PRODUCT_CATEGORY( 'part', 'NONE' );
#22 = PRODUCT_RELATED_PRODUCT_CATEGORY( 'detail', ' ', ( #53 ) );
#23 = PRODUCT_DEFINITION_SHAPE( 'NONE', 'NONE', #54 );
#24 = ADVANCED_BREP_SHAPE_REPRESENTATION( '6132020', ( #55, #56 ), #6 );
#27 = UNCERTAINTY_MEASURE_WITH_UNIT( LENGTH_MEASURE( 0.00100000000000000 ), #29, '', '' );
#29 =  ( CONVERSION_BASED_UNIT( 'MILLIMETRE', #59 )LENGTH_UNIT(  )NAMED_UNIT( #62 ) );
#30 =  ( NAMED_UNIT( #64 )PLANE_ANGLE_UNIT(  )SI_UNIT( $, .RADIAN. ) );
#31 =  ( NAMED_UNIT( #64 )SI_UNIT( $, .STERADIAN. )SOLID_ANGLE_UNIT(  ) );
#33 = PRESENTATION_STYLE_ASSIGNMENT( ( #70 ) );
#34 = ADVANCED_FACE( '', ( #71, #72 ), #73, .T. );
#35 = PRESENTATION_STYLE_ASSIGNMENT( ( #74 ) );
#36 = ADVANCED_FACE( '', ( #75, #76 ), #77, .F. );
#37 = PRESENTATION_STYLE_ASSIGNMENT( ( #78 ) );
#38 = ADVANCED_FACE( '', ( #79, #80 ), #81, .F. );
#39 = PRESENTATION_STYLE_ASSIGNMENT( ( #82 ) );
#40 = ADVANCED_FACE( '', ( #83, #84 ), #85, .F. );
#41 = PRESENTATION_STYLE_ASSIGNMENT( ( #86 ) );
#42 = ADVANCED_FACE( '', ( #87 ), #88, .T. );
#43 = PRESENTATION_STYLE_ASSIGNMENT( ( #89 ) );
#44 = ADVANCED_FACE( '', ( #90, #91 ), #92, .T. );
#45 = PRESENTATION_STYLE_ASSIGNMENT( ( #93 ) );
#46 = ADVANCED_FACE( '', ( #94, #95 ), #96, .F. );
#47 = PRESENTATION_STYLE_ASSIGNMENT( ( #97 ) );
#48 = ADVANCED_FACE( '', ( #98, #99 ), #100, .F. );
#49 = PRESENTATION_STYLE_ASSIGNMENT( ( #101 ) );
#50 = ADVANCED_FACE( '', ( #102, #103 ), #104, .F. );
#51 = PRESENTATION_STYLE_ASSIGNMENT( ( #105 ) );
#52 = ADVANCED_FACE( '', ( #106, #107 ), #108, .F. );
#53 = PRODUCT( '6132020', '6132020', 'PART-6132020-DESC', ( #109 ) );
#54 = PRODUCT_DEFINITION( 'NONE', 'NONE', #110, #2 );
#55 = MANIFOLD_SOLID_BREP( '6132020', #111 );
#56 = AXIS2_PLACEMENT_3D( '', #112, #113, #114 );
#59 = LENGTH_MEASURE_WITH_UNIT( LENGTH_MEASURE( 1.00000000000000 ), #115 );
#62 = DIMENSIONAL_EXPONENTS( 1.00000000000000, 0.000000000000000, 0.000000000000000, 0.000000000000000, 0.000000000000000, 0.000000000000000, 0.000000000000000 );
#64 = DIMENSIONAL_EXPONENTS( 0.000000000000000, 0.000000000000000, 0.000000000000000, 0.000000000000000, 0.000000000000000, 0.000000000000000, 0.000000000000000 );
#70 = SURFACE_STYLE_USAGE( .BOTH., #116 );
#71 = FACE_OUTER_BOUND( '', #117, .T. );
#72 = FACE_OUTER_BOUND( '', #118, .T. );
#73 = SPHERICAL_SURFACE( '', #119, 12.5000000000000 );
#74 = SURFACE_STYLE_USAGE( .BOTH., #120 );
#75 = FACE_OUTER_BOUND( '', #121, .T. );
#76 = FACE_BOUND( '', #122, .T. );
#77 = CONICAL_SURFACE( '', #123, 2.45850000000000, 1.02974425867665 );
#78 = SURFACE_STYLE_USAGE( .BOTH., #124 );
#79 = FACE_OUTER_BOUND( '', #125, .T. );
#80 = FACE_OUTER_BOUND( '', #126, .T. );
#81 = CYLINDRICAL_SURFACE( '', #127, 2.45850000000000 );
#82 = SURFACE_STYLE_USAGE( .BOTH., #128 );
#83 = FACE_OUTER_BOUND( '', #129, .T. );
#84 = FACE_OUTER_BOUND( '', #130, .T. );
#85 = CYLINDRICAL_SURFACE( '', #131, 4.00000000000000 );
#86 = SURFACE_STYLE_USAGE( .BOTH., #132 );
#87 = FACE_OUTER_BOUND( '', #133, .T. );
#88 = SPHERICAL_SURFACE( '', #134, 12.5000000000000 );
#89 = SURFACE_STYLE_USAGE( .BOTH., #135 );
#90 = FACE_OUTER_BOUND( '', #136, .T. );
#91 = FACE_BOUND( '', #137, .T. );
#92 = PLANE( '', #138 );
#93 = SURFACE_STYLE_USAGE( .BOTH., #139 );
#94 = FACE_BOUND( '', #140, .T. );
#95 = FACE_OUTER_BOUND( '', #141, .T. );
#96 = CONICAL_SURFACE( '', #142, 2.95850000000000, 0.785398163397448 );
#97 = SURFACE_STYLE_USAGE( .BOTH., #143 );
#98 = FACE_OUTER_BOUND( '', #144, .T. );
#99 = FACE_OUTER_BOUND( '', #145, .T. );
#100 = CYLINDRICAL_SURFACE( '', #146, 2.45850000000000 );
#101 = SURFACE_STYLE_USAGE( .BOTH., #147 );
#102 = FACE_BOUND( '', #148, .T. );
#103 = FACE_OUTER_BOUND( '', #149, .T. );
#104 = PLANE( '', #150 );
#105 = SURFACE_STYLE_USAGE( .BOTH., #151 );
#106 = FACE_OUTER_BOUND( '', #152, .T. );
#107 = FACE_OUTER_BOUND( '', #153, .T. );
#108 = TOROIDAL_SURFACE( '', #154, 13.0000000000000, 1.00000000000000 );
#109 = PRODUCT_CONTEXT( '', #20, 'mechanical' );
#110 = PRODUCT_DEFINITION_FORMATION_WITH_SPECIFIED_SOURCE( ' ', 'NONE', #53, .NOT_KNOWN. );
#111 = CLOSED_SHELL( '', ( #40, #42, #36, #46, #38, #50, #48, #44, #34, #52 ) );
#112 = CARTESIAN_POINT( '', ( 0.000000000000000, 0.000000000000000, 0.000000000000000 ) );
#113 = DIRECTION( '', ( 0.000000000000000, 0.000000000000000, 1.00000000000000 ) );
#114 = DIRECTION( '', ( 1.00000000000000, 0.000000000000000, 0.000000000000000 ) );
#115 =  ( LENGTH_UNIT(  )NAMED_UNIT( #62 )SI_UNIT( .MILLI., .METRE. ) );
#116 = SURFACE_SIDE_STYLE( '', ( #156 ) );
#117 = EDGE_LOOP( '', ( #157 ) );
#118 = EDGE_LOOP( '', ( #158 ) );
#119 = AXIS2_PLACEMENT_3D( '', #159, #160, #161 );
#120 = SURFACE_SIDE_STYLE( '', ( #162 ) );
#121 = EDGE_LOOP( '', ( #163 ) );
#122 = VERTEX_LOOP( '', #164 );
#123 = AXIS2_PLACEMENT_3D( '', #165, #166, #167 );
#124 = SURFACE_SIDE_STYLE( '', ( #168 ) );
#125 = EDGE_LOOP( '', ( #169 ) );
#126 = EDGE_LOOP( '', ( #170 ) );
#127 = AXIS2_PLACEMENT_3D( '', #171, #172, #173 );
#128 = SURFACE_SIDE_STYLE( '', ( #174 ) );
#129 = EDGE_LOOP( '', ( #175 ) );
#130 = EDGE_LOOP( '', ( #176 ) );
#131 = AXIS2_PLACEMENT_3D( '', #177, #178, #179 );
#132 = SURFACE_SIDE_STYLE( '', ( #180 ) );
#133 = EDGE_LOOP( '', ( #181 ) );
#134 = AXIS2_PLACEMENT_3D( '', #182, #183, #184 );
#135 = SURFACE_SIDE_STYLE( '', ( #185 ) );
#136 = EDGE_LOOP( '', ( #186 ) );
#137 = EDGE_LOOP( '', ( #187 ) );
#138 = AXIS2_PLACEMENT_3D( '', #188, #189, #190 );
#139 = SURFACE_SIDE_STYLE( '', ( #191 ) );
#140 = EDGE_LOOP( '', ( #192 ) );
#141 = EDGE_LOOP( '', ( #193 ) );
#142 = AXIS2_PLACEMENT_3D( '', #194, #195, #196 );
#143 = SURFACE_SIDE_STYLE( '', ( #197 ) );
#144 = EDGE_LOOP( '', ( #198 ) );
#145 = EDGE_LOOP( '', ( #199 ) );
#146 = AXIS2_PLACEMENT_3D( '', #200, #201, #202 );
#147 = SURFACE_SIDE_STYLE( '', ( #203 ) );
#148 = EDGE_LOOP( '', ( #204 ) );
#149 = EDGE_LOOP( '', ( #205 ) );
#150 = AXIS2_PLACEMENT_3D( '', #206, #207, #208 );
#151 = SURFACE_SIDE_STYLE( '', ( #209 ) );
#152 = EDGE_LOOP( '', ( #210 ) );
#153 = EDGE_LOOP( '', ( #211 ) );
#154 = AXIS2_PLACEMENT_3D( '', #212, #213, #214 );
#156 = SURFACE_STYLE_FILL_AREA( #215 );
#157 = ORIENTED_EDGE( '', *, *, #216, .F. );
#158 = ORIENTED_EDGE( '', *, *, #217, .F. );
#159 = CARTESIAN_POINT( '', ( 0.000000000000000, 0.000000000000000, 11.0000000000000 ) );
#160 = DIRECTION( '', ( 0.000000000000000, 0.000000000000000, 1.00000000000000 ) );
#161 = DIRECTION( '', ( 1.00000000000000, 0.000000000000000, 0.000000000000000 ) );
#162 = SURFACE_STYLE_FILL_AREA( #218 );
#163 = ORIENTED_EDGE( '', *, *, #219, .F. );
#164 = VERTEX_POINT( '', #220 );
#165 = CARTESIAN_POINT( '', ( 2.76028149354317E-016, -5.59151845276370E-016, 10.0727841681207 ) );
#166 = DIRECTION( '', ( -2.73894003687099E-017, 5.55111512312578E-017, -1.00000000000000 ) );
#167 = DIRECTION( '', ( -1.00000000000000, -4.60190505702050E-033, 2.73894003687099E-017 ) );
#168 = SURFACE_STYLE_FILL_AREA( #221 );
#169 = ORIENTED_EDGE( '', *, *, #222, .T. );
#170 = ORIENTED_EDGE( '', *, *, #223, .F. );
#171 = CARTESIAN_POINT( '', ( 1.51010096449070E-018, -2.77555756156290E-018, 0.0500000000000000 ) );
#172 = DIRECTION( '', ( -2.73894003687099E-017, 5.55111512312578E-017, -1.00000000000000 ) );
#173 = DIRECTION( '', ( 1.00000000000000, 4.60190505702050E-033, -2.73894003687099E-017 ) );
#174 = SURFACE_STYLE_FILL_AREA( #224 );
#175 = ORIENTED_EDGE( '', *, *, #225, .F. );
#176 = ORIENTED_EDGE( '', *, *, #226, .T. );
#177 = CARTESIAN_POINT( '', ( 0.000000000000000, 0.000000000000000, 57.1500000000000 ) );
#178 = DIRECTION( '', ( -0.000000000000000, -0.000000000000000, -1.00000000000000 ) );
#179 = DIRECTION( '', ( 1.00000000000000, 0.000000000000000, 0.000000000000000 ) );
#180 = SURFACE_STYLE_FILL_AREA( #227 );
#181 = ORIENTED_EDGE( '', *, *, #228, .F. );
#182 = CARTESIAN_POINT( '', ( 0.000000000000000, 0.000000000000000, 11.0000000000000 ) );
#183 = DIRECTION( '', ( 0.000000000000000, 0.000000000000000, 1.00000000000000 ) );
#184 = DIRECTION( '', ( 1.00000000000000, 0.000000000000000, 0.000000000000000 ) );
#185 = SURFACE_STYLE_FILL_AREA( #229 );
#186 = ORIENTED_EDGE( '', *, *, #216, .T. );
#187 = ORIENTED_EDGE( '', *, *, #225, .T. );
#188 = CARTESIAN_POINT( '', ( 6.00000000000000, 0.000000000000000, -9.48676900924816E-017 ) );
#189 = DIRECTION( '', ( 0.000000000000000, 0.000000000000000, -1.00000000000000 ) );
#190 = DIRECTION( '', ( -1.00000000000000, 0.000000000000000, 0.000000000000000 ) );
#191 = SURFACE_STYLE_FILL_AREA( #230 );
#192 = ORIENTED_EDGE( '', *, *, #222, .F. );
#193 = ORIENTED_EDGE( '', *, *, #231, .F. );
#194 = CARTESIAN_POINT( '', ( 1.51010096449070E-018, -2.77555756156290E-018, 0.0500000000000000 ) );
#195 = DIRECTION( '', ( -2.73894003687099E-017, 5.55111512312578E-017, -1.00000000000000 ) );
#196 = DIRECTION( '', ( 1.00000000000000, 4.60190505702050E-033, -2.73894003687099E-017 ) );
#197 = SURFACE_STYLE_FILL_AREA( #232 );
#198 = ORIENTED_EDGE( '', *, *, #219, .T. );
#199 = ORIENTED_EDGE( '', *, *, #223, .T. );
#200 = CARTESIAN_POINT( '', ( 1.51010096449070E-018, -2.77555756156290E-018, 0.0500000000000000 ) );
#201 = DIRECTION( '', ( -2.73894003687099E-017, 5.55111512312578E-017, -1.00000000000000 ) );
#202 = DIRECTION( '', ( 1.00000000000000, 4.60190505702050E-033, -2.73894003687099E-017 ) );
#203 = SURFACE_STYLE_FILL_AREA( #233 );
#204 = ORIENTED_EDGE( '', *, *, #231, .T. );
#205 = ORIENTED_EDGE( '', *, *, #226, .F. );
#206 = CARTESIAN_POINT( '', ( 2.70862740038924E-015, -2.77555756156304E-018, 0.0500000000000000 ) );
#207 = DIRECTION( '', ( 2.73894003687099E-017, -5.55111512312578E-017, 1.00000000000000 ) );
#208 = DIRECTION( '', ( -1.00000000000000, -4.60190505702050E-033, 2.73894003687099E-017 ) );
#209 = SURFACE_STYLE_FILL_AREA( #234 );
#210 = ORIENTED_EDGE( '', *, *, #217, .T. );
#211 = ORIENTED_EDGE( '', *, *, #228, .T. );
#212 = CARTESIAN_POINT( '', ( 0.000000000000000, 0.000000000000000, 11.7500000000000 ) );
#213 = DIRECTION( '', ( 0.000000000000000, 0.000000000000000, 1.00000000000000 ) );
#214 = DIRECTION( '', ( 1.00000000000000, 0.000000000000000, 0.000000000000000 ) );
#215 = FILL_AREA_STYLE( '', ( #235 ) );
#216 = EDGE_CURVE( '', #236, #236, #237, .T. );
#217 = EDGE_CURVE( '', #238, #238, #239, .F. );
#218 = FILL_AREA_STYLE( '', ( #240 ) );
#219 = EDGE_CURVE( '', #241, #241, #242, .T. );
#220 = CARTESIAN_POINT( '', ( 3.16488205204655E-016, -6.41153796721028E-016, 11.5500000000000 ) );
#221 = FILL_AREA_STYLE( '', ( #243 ) );
#222 = EDGE_CURVE( '', #244, #244, #245, .F. );
#223 = EDGE_CURVE( '', #246, #246, #247, .T. );
#224 = FILL_AREA_STYLE( '', ( #248 ) );
#225 = EDGE_CURVE( '', #249, #249, #250, .T. );
#226 = EDGE_CURVE( '', #251, #251, #252, .T. );
#227 = FILL_AREA_STYLE( '', ( #253 ) );
#228 = EDGE_CURVE( '', #254, #254, #255, .F. );
#229 = FILL_AREA_STYLE( '', ( #256 ) );
#230 = FILL_AREA_STYLE( '', ( #257 ) );
#231 = EDGE_CURVE( '', #258, #258, #259, .T. );
#232 = FILL_AREA_STYLE( '', ( #260 ) );
#233 = FILL_AREA_STYLE( '', ( #261 ) );
#234 = FILL_AREA_STYLE( '', ( #262 ) );
#235 = FILL_AREA_STYLE_COLOUR( '', #263 );
#236 = VERTEX_POINT( '', #264 );
#237 = CIRCLE( '', #265, 5.93717104351895 );
#238 = VERTEX_POINT( '', #266 );
#239 = CIRCLE( '', #267, 12.4994643813438 );
#240 = FILL_AREA_STYLE_COLOUR( '', #268 );
#241 = VERTEX_POINT( '', #269 );
#242 = CIRCLE( '', #270, 2.45850000000000 );
#243 = FILL_AREA_STYLE_COLOUR( '', #271 );
#244 = VERTEX_POINT( '', #272 );
#245 = CIRCLE( '', #273, 2.45850000000000 );
#246 = VERTEX_POINT( '', #274 );
#247 = CIRCLE( '', #275, 2.45850000000000 );
#248 = FILL_AREA_STYLE_COLOUR( '', #276 );
#249 = VERTEX_POINT( '', #277 );
#250 = CIRCLE( '', #278, 4.00000000000000 );
#251 = VERTEX_POINT( '', #279 );
#252 = CIRCLE( '', #280, 4.00000000000000 );
#253 = FILL_AREA_STYLE_COLOUR( '', #281 );
#254 = VERTEX_POINT( '', #282 );
#255 = CIRCLE( '', #283, 12.4032263669054 );
#256 = FILL_AREA_STYLE_COLOUR( '', #284 );
#257 = FILL_AREA_STYLE_COLOUR( '', #285 );
#258 = VERTEX_POINT( '', #286 );
#259 = CIRCLE( '', #287, 2.95850000000000 );
#260 = FILL_AREA_STYLE_COLOUR( '', #288 );
#261 = FILL_AREA_STYLE_COLOUR( '', #289 );
#262 = FILL_AREA_STYLE_COLOUR( '', #290 );
#263 = COLOUR_RGB( '', 0.200000002980232, 0.200000002980232, 0.200000002980232 );
#264 = CARTESIAN_POINT( '', ( -5.93717104351895, 0.000000000000000, 0.000000000000000 ) );
#265 = AXIS2_PLACEMENT_3D( '', #291, #292, #293 );
#266 = CARTESIAN_POINT( '', ( -12.4994643813438, 0.000000000000000, 10.8842840567082 ) );
#267 = AXIS2_PLACEMENT_3D( '', #294, #295, #296 );
#268 = COLOUR_RGB( '', 0.666666686534882, 0.400000005960464, 0.133333340287209 );
#269 = CARTESIAN_POINT( '', ( -2.45850000000000, -5.59151845276370E-016, 10.0727841681207 ) );
#270 = AXIS2_PLACEMENT_3D( '', #297, #298, #299 );
#271 = COLOUR_RGB( '', 0.752941191196442, 0.752941191196442, 0.752941191196442 );
#272 = CARTESIAN_POINT( '', ( -2.45850000000000, -3.05311331771918E-017, 0.550000000000000 ) );
#273 = AXIS2_PLACEMENT_3D( '', #300, #301, #302 );
#274 = CARTESIAN_POINT( '', ( 2.45850000000000, -5.02375918642883E-016, 9.05000000000000 ) );
#275 = AXIS2_PLACEMENT_3D( '', #303, #304, #305 );
#276 = COLOUR_RGB( '', 0.200000002980232, 0.200000002980232, 0.200000002980232 );
#277 = CARTESIAN_POINT( '', ( 4.00000000000000, 0.000000000000000, 0.000000000000000 ) );
#278 = AXIS2_PLACEMENT_3D( '', #306, #307, #308 );
#279 = CARTESIAN_POINT( '', ( -4.00000000000000, -2.77555756156286E-018, 0.0500000000000001 ) );
#280 = AXIS2_PLACEMENT_3D( '', #309, #310, #311 );
#281 = COLOUR_RGB( '', 0.200000002980232, 0.200000002980232, 0.200000002980232 );
#282 = CARTESIAN_POINT( '', ( 12.4032263669054, 0.000000000000000, 12.5524096403061 ) );
#283 = AXIS2_PLACEMENT_3D( '', #312, #313, #314 );
#284 = COLOUR_RGB( '', 0.200000002980232, 0.200000002980232, 0.200000002980232 );
#285 = COLOUR_RGB( '', 0.666666686534882, 0.400000005960464, 0.133333340287209 );
#286 = CARTESIAN_POINT( '', ( -2.95850000000000, -2.77555756156291E-018, 0.0500000000000001 ) );
#287 = AXIS2_PLACEMENT_3D( '', #315, #316, #317 );
#288 = COLOUR_RGB( '', 0.666666686534882, 0.400000005960464, 0.133333340287209 );
#289 = COLOUR_RGB( '', 0.666666686534882, 0.400000005960464, 0.133333340287209 );
#290 = COLOUR_RGB( '', 0.200000002980232, 0.200000002980232, 0.200000002980232 );
#291 = CARTESIAN_POINT( '', ( 0.000000000000000, 0.000000000000000, 0.000000000000000 ) );
#292 = DIRECTION( '', ( 0.000000000000000, 0.000000000000000, -1.00000000000000 ) );
#293 = DIRECTION( '', ( -1.00000000000000, 0.000000000000000, 0.000000000000000 ) );
#294 = CARTESIAN_POINT( '', ( 0.000000000000000, 0.000000000000000, 10.8842840567082 ) );
#295 = DIRECTION( '', ( 0.000000000000000, 0.000000000000000, -1.00000000000000 ) );
#296 = DIRECTION( '', ( -1.00000000000000, 0.000000000000000, 0.000000000000000 ) );
#297 = CARTESIAN_POINT( '', ( 2.76028149354317E-016, -5.59151845276370E-016, 10.0727841681207 ) );
#298 = DIRECTION( '', ( 2.73894003687099E-017, -5.55111512312578E-017, 1.00000000000000 ) );
#299 = DIRECTION( '', ( -1.00000000000000, -4.60190505702050E-033, 2.73894003687099E-017 ) );
#300 = CARTESIAN_POINT( '', ( 1.52048011488456E-017, -3.05311331771918E-017, 0.550000000000000 ) );
#301 = DIRECTION( '', ( 2.73894003687099E-017, -5.55111512312578E-017, 1.00000000000000 ) );
#302 = DIRECTION( '', ( -1.00000000000000, -4.60190505702050E-033, 2.73894003687099E-017 ) );
#303 = CARTESIAN_POINT( '', ( 2.48014704282880E-016, -5.02375918642883E-016, 9.05000000000000 ) );
#304 = DIRECTION( '', ( -2.73894003687099E-017, 5.55111512312578E-017, -1.00000000000000 ) );
#305 = DIRECTION( '', ( 1.00000000000000, 4.60190505702050E-033, -2.73894003687099E-017 ) );
#306 = CARTESIAN_POINT( '', ( 0.000000000000000, 0.000000000000000, 0.000000000000000 ) );
#307 = DIRECTION( '', ( 0.000000000000000, 0.000000000000000, 1.00000000000000 ) );
#308 = DIRECTION( '', ( 1.00000000000000, 0.000000000000000, 0.000000000000000 ) );
#309 = CARTESIAN_POINT( '', ( 1.36947001843545E-018, -2.77555756156284E-018, 0.0500000000000000 ) );
#310 = DIRECTION( '', ( 2.73894003687099E-017, -5.55111512312578E-017, 1.00000000000000 ) );
#311 = DIRECTION( '', ( -1.00000000000000, -4.60190505702050E-033, 2.73894003687099E-017 ) );
#312 = CARTESIAN_POINT( '', ( 0.000000000000000, 0.000000000000000, 12.5524096403061 ) );
#313 = DIRECTION( '', ( 0.000000000000000, 0.000000000000000, 1.00000000000000 ) );
#314 = DIRECTION( '', ( 1.00000000000000, 0.000000000000000, 0.000000000000000 ) );
#315 = CARTESIAN_POINT( '', ( 1.51010096449070E-018, -2.77555756156290E-018, 0.0500000000000000 ) );
#316 = DIRECTION( '', ( 2.73894003687099E-017, -5.55111512312578E-017, 1.00000000000000 ) );
#317 = DIRECTION( '', ( -1.00000000000000, -4.60190505702050E-033, 2.73894003687099E-017 ) );
ENDSEC;
END-ISO-10303-21;
