ISO-10303-21;
HEADER;
FILE_DESCRIPTION( ( 'Unknown' ), '1' );
FILE_NAME( '//SBS2003/HD_Usb/Disegni/10_GAMM_CD/2- Gamm_STEP/03 - MANOPOLE/03_19.1-PBO/6132030_PBO32_M08.stp', 'Unknown', ( 'Unknown' ), ( 'Unknown' ), 'PSStep 11.0', 'Unknown', '  ' );
FILE_SCHEMA( ( 'AUTOMOTIVE_DESIGN { 1 0 10303 214 1 1 1 1 }' ) );
ENDSEC;
DATA;
#1 = MECHANICAL_DESIGN_GEOMETRIC_PRESENTATION_REPRESENTATION( ' ', ( #10, #11, #12, #13, #14, #15, #16, #17, #18, #19 ), #6 );
#2 = PRODUCT_DEFINITION_CONTEXT( '', #20, 'design' );
#3 = APPLICATION_PROTOCOL_DEFINITION( 'INTERNATIONAL STANDARD', 'automotive_design', 2001, #20 );
#4 = PRODUCT_CATEGORY_RELATIONSHIP( 'NONE', 'NONE', #21, #22 );
#5 = SHAPE_DEFINITION_REPRESENTATION( #23, #24 );
#6 =  ( GEOMETRIC_REPRESENTATION_CONTEXT( 3 )GLOBAL_UNCERTAINTY_ASSIGNED_CONTEXT( ( #27 ) )GLOBAL_UNIT_ASSIGNED_CONTEXT( ( #29, #30, #31 ) )REPRESENTATION_CONTEXT( 'NONE', 'WORKSPACE' ) );
#10 = STYLED_ITEM( '', ( #33 ), #34 );
#11 = STYLED_ITEM( '', ( #35 ), #36 );
#12 = STYLED_ITEM( '', ( #37 ), #38 );
#13 = STYLED_ITEM( '', ( #39 ), #40 );
#14 = STYLED_ITEM( '', ( #41 ), #42 );
#15 = STYLED_ITEM( '', ( #43 ), #44 );
#16 = STYLED_ITEM( '', ( #45 ), #46 );
#17 = STYLED_ITEM( '', ( #47 ), #48 );
#18 = STYLED_ITEM( '', ( #49 ), #50 );
#19 = STYLED_ITEM( '', ( #51 ), #52 );
#20 = APPLICATION_CONTEXT( 'core data for automotive mechanical design processes' );
#21 = PRODUCT_CATEGORY( 'part', 'NONE' );
#22 = PRODUCT_RELATED_PRODUCT_CATEGORY( 'detail', ' ', ( #53 ) );
#23 = PRODUCT_DEFINITION_SHAPE( 'NONE', 'NONE', #54 );
#24 = ADVANCED_BREP_SHAPE_REPRESENTATION( '6132030', ( #55, #56 ), #6 );
#27 = UNCERTAINTY_MEASURE_WITH_UNIT( LENGTH_MEASURE( 0.00100000000000000 ), #29, '', '' );
#29 =  ( CONVERSION_BASED_UNIT( 'MILLIMETRE', #59 )LENGTH_UNIT(  )NAMED_UNIT( #62 ) );
#30 =  ( NAMED_UNIT( #64 )PLANE_ANGLE_UNIT(  )SI_UNIT( $, .RADIAN. ) );
#31 =  ( NAMED_UNIT( #64 )SI_UNIT( $, .STERADIAN. )SOLID_ANGLE_UNIT(  ) );
#33 = PRESENTATION_STYLE_ASSIGNMENT( ( #70 ) );
#34 = ADVANCED_FACE( '', ( #71, #72 ), #73, .F. );
#35 = PRESENTATION_STYLE_ASSIGNMENT( ( #74 ) );
#36 = ADVANCED_FACE( '', ( #75, #76 ), #77, .F. );
#37 = PRESENTATION_STYLE_ASSIGNMENT( ( #78 ) );
#38 = ADVANCED_FACE( '', ( #79, #80 ), #81, .F. );
#39 = PRESENTATION_STYLE_ASSIGNMENT( ( #82 ) );
#40 = ADVANCED_FACE( '', ( #83, #84 ), #85, .F. );
#41 = PRESENTATION_STYLE_ASSIGNMENT( ( #86 ) );
#42 = ADVANCED_FACE( '', ( #87, #88 ), #89, .T. );
#43 = PRESENTATION_STYLE_ASSIGNMENT( ( #90 ) );
#44 = ADVANCED_FACE( '', ( #91, #92 ), #93, .F. );
#45 = PRESENTATION_STYLE_ASSIGNMENT( ( #94 ) );
#46 = ADVANCED_FACE( '', ( #95, #96 ), #97, .F. );
#47 = PRESENTATION_STYLE_ASSIGNMENT( ( #98 ) );
#48 = ADVANCED_FACE( '', ( #99, #100 ), #101, .F. );
#49 = PRESENTATION_STYLE_ASSIGNMENT( ( #102 ) );
#50 = ADVANCED_FACE( '', ( #103, #104 ), #105, .T. );
#51 = PRESENTATION_STYLE_ASSIGNMENT( ( #106 ) );
#52 = ADVANCED_FACE( '', ( #107 ), #108, .T. );
#53 = PRODUCT( '6132030', '6132030', 'PART-6132030-DESC', ( #109 ) );
#54 = PRODUCT_DEFINITION( 'NONE', 'NONE', #110, #2 );
#55 = MANIFOLD_SOLID_BREP( '6132030', #111 );
#56 = AXIS2_PLACEMENT_3D( '', #112, #113, #114 );
#59 = LENGTH_MEASURE_WITH_UNIT( LENGTH_MEASURE( 1.00000000000000 ), #115 );
#62 = DIMENSIONAL_EXPONENTS( 1.00000000000000, 0.000000000000000, 0.000000000000000, 0.000000000000000, 0.000000000000000, 0.000000000000000, 0.000000000000000 );
#64 = DIMENSIONAL_EXPONENTS( 0.000000000000000, 0.000000000000000, 0.000000000000000, 0.000000000000000, 0.000000000000000, 0.000000000000000, 0.000000000000000 );
#70 = SURFACE_STYLE_USAGE( .BOTH., #116 );
#71 = FACE_OUTER_BOUND( '', #117, .T. );
#72 = FACE_OUTER_BOUND( '', #118, .T. );
#73 = CYLINDRICAL_SURFACE( '', #119, 5.00000000000000 );
#74 = SURFACE_STYLE_USAGE( .BOTH., #120 );
#75 = FACE_OUTER_BOUND( '', #121, .T. );
#76 = FACE_OUTER_BOUND( '', #122, .T. );
#77 = CYLINDRICAL_SURFACE( '', #123, 3.32350000000000 );
#78 = SURFACE_STYLE_USAGE( .BOTH., #124 );
#79 = FACE_OUTER_BOUND( '', #125, .T. );
#80 = FACE_OUTER_BOUND( '', #126, .T. );
#81 = TOROIDAL_SURFACE( '', #127, 16.0000000000000, 1.00000000000000 );
#82 = SURFACE_STYLE_USAGE( .BOTH., #128 );
#83 = FACE_BOUND( '', #129, .T. );
#84 = FACE_OUTER_BOUND( '', #130, .T. );
#85 = PLANE( '', #131 );
#86 = SURFACE_STYLE_USAGE( .BOTH., #132 );
#87 = FACE_OUTER_BOUND( '', #133, .T. );
#88 = FACE_BOUND( '', #134, .T. );
#89 = PLANE( '', #135 );
#90 = SURFACE_STYLE_USAGE( .BOTH., #136 );
#91 = FACE_OUTER_BOUND( '', #137, .T. );
#92 = FACE_BOUND( '', #138, .T. );
#93 = CONICAL_SURFACE( '', #139, 3.32350000000000, 1.02974425867665 );
#94 = SURFACE_STYLE_USAGE( .BOTH., #140 );
#95 = FACE_BOUND( '', #141, .T. );
#96 = FACE_OUTER_BOUND( '', #142, .T. );
#97 = CONICAL_SURFACE( '', #143, 4.32350000000000, 0.785398163397448 );
#98 = SURFACE_STYLE_USAGE( .BOTH., #144 );
#99 = FACE_OUTER_BOUND( '', #145, .T. );
#100 = FACE_OUTER_BOUND( '', #146, .T. );
#101 = CYLINDRICAL_SURFACE( '', #147, 3.32350000000000 );
#102 = SURFACE_STYLE_USAGE( .BOTH., #148 );
#103 = FACE_OUTER_BOUND( '', #149, .T. );
#104 = FACE_OUTER_BOUND( '', #150, .T. );
#105 = SPHERICAL_SURFACE( '', #151, 16.0000000000000 );
#106 = SURFACE_STYLE_USAGE( .BOTH., #152 );
#107 = FACE_OUTER_BOUND( '', #153, .T. );
#108 = SPHERICAL_SURFACE( '', #154, 16.0000000000000 );
#109 = PRODUCT_CONTEXT( '', #20, 'mechanical' );
#110 = PRODUCT_DEFINITION_FORMATION_WITH_SPECIFIED_SOURCE( ' ', 'NONE', #53, .NOT_KNOWN. );
#111 = CLOSED_SHELL( '', ( #34, #52, #44, #46, #48, #40, #36, #42, #50, #38 ) );
#112 = CARTESIAN_POINT( '', ( 0.000000000000000, 0.000000000000000, 0.000000000000000 ) );
#113 = DIRECTION( '', ( 0.000000000000000, 0.000000000000000, 1.00000000000000 ) );
#114 = DIRECTION( '', ( 1.00000000000000, 0.000000000000000, 0.000000000000000 ) );
#115 =  ( LENGTH_UNIT(  )NAMED_UNIT( #62 )SI_UNIT( .MILLI., .METRE. ) );
#116 = SURFACE_SIDE_STYLE( '', ( #156 ) );
#117 = EDGE_LOOP( '', ( #157 ) );
#118 = EDGE_LOOP( '', ( #158 ) );
#119 = AXIS2_PLACEMENT_3D( '', #159, #160, #161 );
#120 = SURFACE_SIDE_STYLE( '', ( #162 ) );
#121 = EDGE_LOOP( '', ( #163 ) );
#122 = EDGE_LOOP( '', ( #164 ) );
#123 = AXIS2_PLACEMENT_3D( '', #165, #166, #167 );
#124 = SURFACE_SIDE_STYLE( '', ( #168 ) );
#125 = EDGE_LOOP( '', ( #169 ) );
#126 = EDGE_LOOP( '', ( #170 ) );
#127 = AXIS2_PLACEMENT_3D( '', #171, #172, #173 );
#128 = SURFACE_SIDE_STYLE( '', ( #174 ) );
#129 = EDGE_LOOP( '', ( #175 ) );
#130 = EDGE_LOOP( '', ( #176 ) );
#131 = AXIS2_PLACEMENT_3D( '', #177, #178, #179 );
#132 = SURFACE_SIDE_STYLE( '', ( #180 ) );
#133 = EDGE_LOOP( '', ( #181 ) );
#134 = EDGE_LOOP( '', ( #182 ) );
#135 = AXIS2_PLACEMENT_3D( '', #183, #184, #185 );
#136 = SURFACE_SIDE_STYLE( '', ( #186 ) );
#137 = EDGE_LOOP( '', ( #187 ) );
#138 = VERTEX_LOOP( '', #188 );
#139 = AXIS2_PLACEMENT_3D( '', #189, #190, #191 );
#140 = SURFACE_SIDE_STYLE( '', ( #192 ) );
#141 = EDGE_LOOP( '', ( #193 ) );
#142 = EDGE_LOOP( '', ( #194 ) );
#143 = AXIS2_PLACEMENT_3D( '', #195, #196, #197 );
#144 = SURFACE_SIDE_STYLE( '', ( #198 ) );
#145 = EDGE_LOOP( '', ( #199 ) );
#146 = EDGE_LOOP( '', ( #200 ) );
#147 = AXIS2_PLACEMENT_3D( '', #201, #202, #203 );
#148 = SURFACE_SIDE_STYLE( '', ( #204 ) );
#149 = EDGE_LOOP( '', ( #205 ) );
#150 = EDGE_LOOP( '', ( #206 ) );
#151 = AXIS2_PLACEMENT_3D( '', #207, #208, #209 );
#152 = SURFACE_SIDE_STYLE( '', ( #210 ) );
#153 = EDGE_LOOP( '', ( #211 ) );
#154 = AXIS2_PLACEMENT_3D( '', #212, #213, #214 );
#156 = SURFACE_STYLE_FILL_AREA( #215 );
#157 = ORIENTED_EDGE( '', *, *, #216, .F. );
#158 = ORIENTED_EDGE( '', *, *, #217, .T. );
#159 = CARTESIAN_POINT( '', ( 0.000000000000000, 0.000000000000000, 57.1500000000000 ) );
#160 = DIRECTION( '', ( -0.000000000000000, -0.000000000000000, -1.00000000000000 ) );
#161 = DIRECTION( '', ( 1.00000000000000, 0.000000000000000, 0.000000000000000 ) );
#162 = SURFACE_STYLE_FILL_AREA( #218 );
#163 = ORIENTED_EDGE( '', *, *, #219, .T. );
#164 = ORIENTED_EDGE( '', *, *, #220, .T. );
#165 = CARTESIAN_POINT( '', ( 2.77555756156278E-018, -4.76217190405777E-018, 0.0500000000000018 ) );
#166 = DIRECTION( '', ( -0.000000000000000, 0.000000000000000, -1.00000000000000 ) );
#167 = DIRECTION( '', ( 0.000000000000000, 1.00000000000000, 0.000000000000000 ) );
#168 = SURFACE_STYLE_FILL_AREA( #221 );
#169 = ORIENTED_EDGE( '', *, *, #222, .T. );
#170 = ORIENTED_EDGE( '', *, *, #223, .T. );
#171 = CARTESIAN_POINT( '', ( 0.000000000000000, 0.000000000000000, 15.5000000000000 ) );
#172 = DIRECTION( '', ( 0.000000000000000, 0.000000000000000, 1.00000000000000 ) );
#173 = DIRECTION( '', ( 1.00000000000000, 0.000000000000000, 0.000000000000000 ) );
#174 = SURFACE_STYLE_FILL_AREA( #224 );
#175 = ORIENTED_EDGE( '', *, *, #225, .T. );
#176 = ORIENTED_EDGE( '', *, *, #217, .F. );
#177 = CARTESIAN_POINT( '', ( 2.77555756156298E-018, 3.07038331503706E-015, 0.0500000000000018 ) );
#178 = DIRECTION( '', ( 0.000000000000000, 0.000000000000000, 1.00000000000000 ) );
#179 = DIRECTION( '', ( 1.00000000000000, 0.000000000000000, 0.000000000000000 ) );
#180 = SURFACE_STYLE_FILL_AREA( #226 );
#181 = ORIENTED_EDGE( '', *, *, #227, .T. );
#182 = ORIENTED_EDGE( '', *, *, #216, .T. );
#183 = CARTESIAN_POINT( '', ( 7.50000000000000, 0.000000000000000, -2.16840434497101E-016 ) );
#184 = DIRECTION( '', ( 0.000000000000000, 0.000000000000000, -1.00000000000000 ) );
#185 = DIRECTION( '', ( -1.00000000000000, 0.000000000000000, 0.000000000000000 ) );
#186 = SURFACE_STYLE_FILL_AREA( #228 );
#187 = ORIENTED_EDGE( '', *, *, #219, .F. );
#188 = VERTEX_POINT( '', #229 );
#189 = CARTESIAN_POINT( '', ( 2.77555756156278E-018, -4.76217190405777E-018, 14.5530397326619 ) );
#190 = DIRECTION( '', ( 0.000000000000000, -0.000000000000000, -1.00000000000000 ) );
#191 = DIRECTION( '', ( 0.000000000000000, -1.00000000000000, 0.000000000000000 ) );
#192 = SURFACE_STYLE_FILL_AREA( #230 );
#193 = ORIENTED_EDGE( '', *, *, #231, .F. );
#194 = ORIENTED_EDGE( '', *, *, #225, .F. );
#195 = CARTESIAN_POINT( '', ( 2.77555756156278E-018, -4.76217190405777E-018, 0.0500000000000018 ) );
#196 = DIRECTION( '', ( -0.000000000000000, 0.000000000000000, -1.00000000000000 ) );
#197 = DIRECTION( '', ( -1.00000000000000, 0.000000000000000, 0.000000000000000 ) );
#198 = SURFACE_STYLE_FILL_AREA( #232 );
#199 = ORIENTED_EDGE( '', *, *, #231, .T. );
#200 = ORIENTED_EDGE( '', *, *, #220, .F. );
#201 = CARTESIAN_POINT( '', ( 2.77555756156278E-018, -4.76217190405777E-018, 0.0500000000000018 ) );
#202 = DIRECTION( '', ( -0.000000000000000, 0.000000000000000, -1.00000000000000 ) );
#203 = DIRECTION( '', ( 0.000000000000000, 1.00000000000000, 0.000000000000000 ) );
#204 = SURFACE_STYLE_FILL_AREA( #233 );
#205 = ORIENTED_EDGE( '', *, *, #227, .F. );
#206 = ORIENTED_EDGE( '', *, *, #222, .F. );
#207 = CARTESIAN_POINT( '', ( 0.000000000000000, 0.000000000000000, 15.0000000000000 ) );
#208 = DIRECTION( '', ( 0.000000000000000, 0.000000000000000, 1.00000000000000 ) );
#209 = DIRECTION( '', ( 1.00000000000000, 0.000000000000000, 0.000000000000000 ) );
#210 = SURFACE_STYLE_FILL_AREA( #234 );
#211 = ORIENTED_EDGE( '', *, *, #223, .F. );
#212 = CARTESIAN_POINT( '', ( 0.000000000000000, 0.000000000000000, 15.0000000000000 ) );
#213 = DIRECTION( '', ( 0.000000000000000, 0.000000000000000, 1.00000000000000 ) );
#214 = DIRECTION( '', ( 1.00000000000000, 0.000000000000000, 0.000000000000000 ) );
#215 = FILL_AREA_STYLE( '', ( #235 ) );
#216 = EDGE_CURVE( '', #236, #236, #237, .T. );
#217 = EDGE_CURVE( '', #238, #238, #239, .T. );
#218 = FILL_AREA_STYLE( '', ( #240 ) );
#219 = EDGE_CURVE( '', #241, #241, #242, .T. );
#220 = EDGE_CURVE( '', #243, #243, #244, .T. );
#221 = FILL_AREA_STYLE( '', ( #245 ) );
#222 = EDGE_CURVE( '', #246, #246, #247, .F. );
#223 = EDGE_CURVE( '', #248, #248, #249, .F. );
#224 = FILL_AREA_STYLE( '', ( #250 ) );
#225 = EDGE_CURVE( '', #251, #251, #252, .T. );
#226 = FILL_AREA_STYLE( '', ( #253 ) );
#227 = EDGE_CURVE( '', #254, #254, #255, .T. );
#228 = FILL_AREA_STYLE( '', ( #256 ) );
#229 = CARTESIAN_POINT( '', ( 2.77555756156278E-018, -4.76217190405777E-018, 16.5500000000000 ) );
#230 = FILL_AREA_STYLE( '', ( #257 ) );
#231 = EDGE_CURVE( '', #258, #258, #259, .F. );
#232 = FILL_AREA_STYLE( '', ( #260 ) );
#233 = FILL_AREA_STYLE( '', ( #261 ) );
#234 = FILL_AREA_STYLE( '', ( #262 ) );
#235 = FILL_AREA_STYLE_COLOUR( '', #263 );
#236 = VERTEX_POINT( '', #264 );
#237 = CIRCLE( '', #265, 5.00000000000000 );
#238 = VERTEX_POINT( '', #266 );
#239 = CIRCLE( '', #267, 5.00000000000000 );
#240 = FILL_AREA_STYLE_COLOUR( '', #268 );
#241 = VERTEX_POINT( '', #269 );
#242 = CIRCLE( '', #270, 3.32350000000000 );
#243 = VERTEX_POINT( '', #271 );
#244 = CIRCLE( '', #272, 3.32350000000000 );
#245 = FILL_AREA_STYLE_COLOUR( '', #273 );
#246 = VERTEX_POINT( '', #274 );
#247 = CIRCLE( '', #275, 15.9921865460779 );
#248 = VERTEX_POINT( '', #276 );
#249 = CIRCLE( '', #277, 15.9297646734343 );
#250 = FILL_AREA_STYLE_COLOUR( '', #278 );
#251 = VERTEX_POINT( '', #279 );
#252 = CIRCLE( '', #280, 4.32350000000000 );
#253 = FILL_AREA_STYLE_COLOUR( '', #281 );
#254 = VERTEX_POINT( '', #282 );
#255 = CIRCLE( '', #283, 5.56776436283000 );
#256 = FILL_AREA_STYLE_COLOUR( '', #284 );
#257 = FILL_AREA_STYLE_COLOUR( '', #285 );
#258 = VERTEX_POINT( '', #286 );
#259 = CIRCLE( '', #287, 3.32350000000000 );
#260 = FILL_AREA_STYLE_COLOUR( '', #288 );
#261 = FILL_AREA_STYLE_COLOUR( '', #289 );
#262 = FILL_AREA_STYLE_COLOUR( '', #290 );
#263 = COLOUR_RGB( '', 0.200000002980232, 0.200000002980232, 0.200000002980232 );
#264 = CARTESIAN_POINT( '', ( 5.00000000000000, 0.000000000000000, 0.000000000000000 ) );
#265 = AXIS2_PLACEMENT_3D( '', #291, #292, #293 );
#266 = CARTESIAN_POINT( '', ( 5.00000000000000, -2.77555756156273E-018, 0.0500000000000014 ) );
#267 = AXIS2_PLACEMENT_3D( '', #294, #295, #296 );
#268 = COLOUR_RGB( '', 0.666666686534882, 0.400000005960464, 0.133333340287209 );
#269 = CARTESIAN_POINT( '', ( 2.77555756156278E-018, -3.32350000000000, 14.5530397326619 ) );
#270 = AXIS2_PLACEMENT_3D( '', #297, #298, #299 );
#271 = CARTESIAN_POINT( '', ( 2.77555756156278E-018, 3.32350000000000, 13.0500000000000 ) );
#272 = AXIS2_PLACEMENT_3D( '', #300, #301, #302 );
#273 = COLOUR_RGB( '', 0.200000002980232, 0.200000002980232, 0.200000002980232 );
#274 = CARTESIAN_POINT( '', ( -15.9921865460779, 0.000000000000000, 14.5000305255081 ) );
#275 = AXIS2_PLACEMENT_3D( '', #303, #304, #305 );
#276 = CARTESIAN_POINT( '', ( 15.9297646734343, 0.000000000000000, 16.4975304501017 ) );
#277 = AXIS2_PLACEMENT_3D( '', #306, #307, #308 );
#278 = COLOUR_RGB( '', 0.666666686534882, 0.400000005960464, 0.133333340287209 );
#279 = CARTESIAN_POINT( '', ( 4.32350000000000, -4.76217190405777E-018, 0.0500000000000018 ) );
#280 = AXIS2_PLACEMENT_3D( '', #309, #310, #311 );
#281 = COLOUR_RGB( '', 0.200000002980232, 0.200000002980232, 0.200000002980232 );
#282 = CARTESIAN_POINT( '', ( -5.56776436283000, 0.000000000000000, 0.000000000000000 ) );
#283 = AXIS2_PLACEMENT_3D( '', #312, #313, #314 );
#284 = COLOUR_RGB( '', 0.666666686534882, 0.400000005960464, 0.133333340287209 );
#285 = COLOUR_RGB( '', 0.666666686534882, 0.400000005960464, 0.133333340287209 );
#286 = CARTESIAN_POINT( '', ( 3.32350000000000, -4.76217190405777E-018, 1.05000000000000 ) );
#287 = AXIS2_PLACEMENT_3D( '', #315, #316, #317 );
#288 = COLOUR_RGB( '', 0.752941191196442, 0.752941191196442, 0.752941191196442 );
#289 = COLOUR_RGB( '', 0.200000002980232, 0.200000002980232, 0.200000002980232 );
#290 = COLOUR_RGB( '', 0.200000002980232, 0.200000002980232, 0.200000002980232 );
#291 = CARTESIAN_POINT( '', ( 0.000000000000000, 0.000000000000000, 0.000000000000000 ) );
#292 = DIRECTION( '', ( 0.000000000000000, 0.000000000000000, 1.00000000000000 ) );
#293 = DIRECTION( '', ( 1.00000000000000, 0.000000000000000, 0.000000000000000 ) );
#294 = CARTESIAN_POINT( '', ( 2.77555756156279E-018, -2.77555756156273E-018, 0.0500000000000014 ) );
#295 = DIRECTION( '', ( 0.000000000000000, 0.000000000000000, 1.00000000000000 ) );
#296 = DIRECTION( '', ( 1.00000000000000, 0.000000000000000, 0.000000000000000 ) );
#297 = CARTESIAN_POINT( '', ( 2.77555756156278E-018, -4.76217190405777E-018, 14.5530397326619 ) );
#298 = DIRECTION( '', ( 0.000000000000000, 0.000000000000000, 1.00000000000000 ) );
#299 = DIRECTION( '', ( 0.000000000000000, -1.00000000000000, 0.000000000000000 ) );
#300 = CARTESIAN_POINT( '', ( 2.77555756156278E-018, -4.76217190405777E-018, 13.0500000000000 ) );
#301 = DIRECTION( '', ( 0.000000000000000, 0.000000000000000, -1.00000000000000 ) );
#302 = DIRECTION( '', ( 0.000000000000000, 1.00000000000000, 0.000000000000000 ) );
#303 = CARTESIAN_POINT( '', ( 0.000000000000000, 0.000000000000000, 14.5000305255081 ) );
#304 = DIRECTION( '', ( 0.000000000000000, 0.000000000000000, -1.00000000000000 ) );
#305 = DIRECTION( '', ( -1.00000000000000, 0.000000000000000, 0.000000000000000 ) );
#306 = CARTESIAN_POINT( '', ( 0.000000000000000, 0.000000000000000, 16.4975304501017 ) );
#307 = DIRECTION( '', ( 0.000000000000000, 0.000000000000000, 1.00000000000000 ) );
#308 = DIRECTION( '', ( 1.00000000000000, 0.000000000000000, 0.000000000000000 ) );
#309 = CARTESIAN_POINT( '', ( 2.77555756156278E-018, -4.76217190405777E-018, 0.0500000000000018 ) );
#310 = DIRECTION( '', ( 0.000000000000000, 0.000000000000000, 1.00000000000000 ) );
#311 = DIRECTION( '', ( 1.00000000000000, 0.000000000000000, 0.000000000000000 ) );
#312 = CARTESIAN_POINT( '', ( 0.000000000000000, 0.000000000000000, 0.000000000000000 ) );
#313 = DIRECTION( '', ( 0.000000000000000, 0.000000000000000, -1.00000000000000 ) );
#314 = DIRECTION( '', ( -1.00000000000000, 0.000000000000000, 0.000000000000000 ) );
#315 = CARTESIAN_POINT( '', ( 2.77555756156278E-018, -4.76217190405777E-018, 1.05000000000000 ) );
#316 = DIRECTION( '', ( 0.000000000000000, 0.000000000000000, 1.00000000000000 ) );
#317 = DIRECTION( '', ( 1.00000000000000, 0.000000000000000, 0.000000000000000 ) );
ENDSEC;
END-ISO-10303-21;
