ISO-10303-21;
HEADER;
FILE_DESCRIPTION( ( 'Unknown' ), '1' );
FILE_NAME( '//SBS2003/HD_Usb/Disegni/10_GAMM_CD/2- Gamm_STEP/03 - MANOPOLE/03_19.1-PBO/6132045_PBO41_M12.stp', 'Unknown', ( 'Unknown' ), ( 'Unknown' ), 'PSStep 11.0', 'Unknown', '  ' );
FILE_SCHEMA( ( 'AUTOMOTIVE_DESIGN { 1 0 10303 214 1 1 1 1 }' ) );
ENDSEC;
DATA;
#1 = MECHANICAL_DESIGN_GEOMETRIC_PRESENTATION_REPRESENTATION( ' ', ( #10, #11, #12, #13, #14, #15, #16, #17, #18 ), #6 );
#2 = PRODUCT_DEFINITION_CONTEXT( '', #19, 'design' );
#3 = APPLICATION_PROTOCOL_DEFINITION( 'INTERNATIONAL STANDARD', 'automotive_design', 2001, #19 );
#4 = PRODUCT_CATEGORY_RELATIONSHIP( 'NONE', 'NONE', #20, #21 );
#5 = SHAPE_DEFINITION_REPRESENTATION( #22, #23 );
#6 =  ( GEOMETRIC_REPRESENTATION_CONTEXT( 3 )GLOBAL_UNCERTAINTY_ASSIGNED_CONTEXT( ( #26 ) )GLOBAL_UNIT_ASSIGNED_CONTEXT( ( #28, #29, #30 ) )REPRESENTATION_CONTEXT( 'NONE', 'WORKSPACE' ) );
#10 = STYLED_ITEM( '', ( #32 ), #33 );
#11 = STYLED_ITEM( '', ( #34 ), #35 );
#12 = STYLED_ITEM( '', ( #36 ), #37 );
#13 = STYLED_ITEM( '', ( #38 ), #39 );
#14 = STYLED_ITEM( '', ( #40 ), #41 );
#15 = STYLED_ITEM( '', ( #42 ), #43 );
#16 = STYLED_ITEM( '', ( #44 ), #45 );
#17 = STYLED_ITEM( '', ( #46 ), #47 );
#18 = STYLED_ITEM( '', ( #48 ), #49 );
#19 = APPLICATION_CONTEXT( 'core data for automotive mechanical design processes' );
#20 = PRODUCT_CATEGORY( 'part', 'NONE' );
#21 = PRODUCT_RELATED_PRODUCT_CATEGORY( 'detail', ' ', ( #50 ) );
#22 = PRODUCT_DEFINITION_SHAPE( 'NONE', 'NONE', #51 );
#23 = ADVANCED_BREP_SHAPE_REPRESENTATION( '6132045', ( #52, #53 ), #6 );
#26 = UNCERTAINTY_MEASURE_WITH_UNIT( LENGTH_MEASURE( 0.00100000000000000 ), #28, '', '' );
#28 =  ( CONVERSION_BASED_UNIT( 'MILLIMETRE', #56 )LENGTH_UNIT(  )NAMED_UNIT( #59 ) );
#29 =  ( NAMED_UNIT( #61 )PLANE_ANGLE_UNIT(  )SI_UNIT( $, .RADIAN. ) );
#30 =  ( NAMED_UNIT( #61 )SI_UNIT( $, .STERADIAN. )SOLID_ANGLE_UNIT(  ) );
#32 = PRESENTATION_STYLE_ASSIGNMENT( ( #67 ) );
#33 = ADVANCED_FACE( '', ( #68 ), #69, .T. );
#34 = PRESENTATION_STYLE_ASSIGNMENT( ( #70 ) );
#35 = ADVANCED_FACE( '', ( #71, #72 ), #73, .T. );
#36 = PRESENTATION_STYLE_ASSIGNMENT( ( #74 ) );
#37 = ADVANCED_FACE( '', ( #75, #76 ), #77, .F. );
#38 = PRESENTATION_STYLE_ASSIGNMENT( ( #78 ) );
#39 = ADVANCED_FACE( '', ( #79, #80 ), #81, .F. );
#40 = PRESENTATION_STYLE_ASSIGNMENT( ( #82 ) );
#41 = ADVANCED_FACE( '', ( #83, #84 ), #85, .F. );
#42 = PRESENTATION_STYLE_ASSIGNMENT( ( #86 ) );
#43 = ADVANCED_FACE( '', ( #87, #88 ), #89, .F. );
#44 = PRESENTATION_STYLE_ASSIGNMENT( ( #90 ) );
#45 = ADVANCED_FACE( '', ( #91, #92 ), #93, .F. );
#46 = PRESENTATION_STYLE_ASSIGNMENT( ( #94 ) );
#47 = ADVANCED_FACE( '', ( #95, #96 ), #97, .T. );
#48 = PRESENTATION_STYLE_ASSIGNMENT( ( #98 ) );
#49 = ADVANCED_FACE( '', ( #99, #100 ), #101, .F. );
#50 = PRODUCT( '6132045', '6132045', 'PART-6132045-DESC', ( #102 ) );
#51 = PRODUCT_DEFINITION( 'NONE', 'NONE', #103, #2 );
#52 = MANIFOLD_SOLID_BREP( '6132045', #104 );
#53 = AXIS2_PLACEMENT_3D( '', #105, #106, #107 );
#56 = LENGTH_MEASURE_WITH_UNIT( LENGTH_MEASURE( 1.00000000000000 ), #108 );
#59 = DIMENSIONAL_EXPONENTS( 1.00000000000000, 0.000000000000000, 0.000000000000000, 0.000000000000000, 0.000000000000000, 0.000000000000000, 0.000000000000000 );
#61 = DIMENSIONAL_EXPONENTS( 0.000000000000000, 0.000000000000000, 0.000000000000000, 0.000000000000000, 0.000000000000000, 0.000000000000000, 0.000000000000000 );
#67 = SURFACE_STYLE_USAGE( .BOTH., #109 );
#68 = FACE_OUTER_BOUND( '', #110, .T. );
#69 = SPHERICAL_SURFACE( '', #111, 20.5000000000000 );
#70 = SURFACE_STYLE_USAGE( .BOTH., #112 );
#71 = FACE_OUTER_BOUND( '', #113, .T. );
#72 = FACE_OUTER_BOUND( '', #114, .T. );
#73 = SPHERICAL_SURFACE( '', #115, 20.5000000000000 );
#74 = SURFACE_STYLE_USAGE( .BOTH., #116 );
#75 = FACE_OUTER_BOUND( '', #117, .T. );
#76 = FACE_OUTER_BOUND( '', #118, .T. );
#77 = TOROIDAL_SURFACE( '', #119, 21.0000000000000, 1.25000000000000 );
#78 = SURFACE_STYLE_USAGE( .BOTH., #120 );
#79 = FACE_OUTER_BOUND( '', #121, .T. );
#80 = FACE_OUTER_BOUND( '', #122, .T. );
#81 = CYLINDRICAL_SURFACE( '', #123, 5.05300000000000 );
#82 = SURFACE_STYLE_USAGE( .BOTH., #124 );
#83 = FACE_BOUND( '', #125, .T. );
#84 = FACE_OUTER_BOUND( '', #126, .T. );
#85 = CONICAL_SURFACE( '', #127, 6.05300000000000, 0.785398163397448 );
#86 = SURFACE_STYLE_USAGE( .BOTH., #128 );
#87 = FACE_OUTER_BOUND( '', #129, .T. );
#88 = FACE_OUTER_BOUND( '', #130, .T. );
#89 = CYLINDRICAL_SURFACE( '', #131, 7.00000000000000 );
#90 = SURFACE_STYLE_USAGE( .BOTH., #132 );
#91 = FACE_BOUND( '', #133, .T. );
#92 = FACE_OUTER_BOUND( '', #134, .T. );
#93 = PLANE( '', #135 );
#94 = SURFACE_STYLE_USAGE( .BOTH., #136 );
#95 = FACE_OUTER_BOUND( '', #137, .T. );
#96 = FACE_BOUND( '', #138, .T. );
#97 = PLANE( '', #139 );
#98 = SURFACE_STYLE_USAGE( .BOTH., #140 );
#99 = FACE_OUTER_BOUND( '', #141, .T. );
#100 = FACE_BOUND( '', #142, .T. );
#101 = CONICAL_SURFACE( '', #143, 5.05300000000000, 1.02974425867665 );
#102 = PRODUCT_CONTEXT( '', #19, 'mechanical' );
#103 = PRODUCT_DEFINITION_FORMATION_WITH_SPECIFIED_SOURCE( ' ', 'NONE', #50, .NOT_KNOWN. );
#104 = CLOSED_SHELL( '', ( #43, #33, #49, #41, #39, #45, #47, #35, #37 ) );
#105 = CARTESIAN_POINT( '', ( 0.000000000000000, 0.000000000000000, 0.000000000000000 ) );
#106 = DIRECTION( '', ( 0.000000000000000, 0.000000000000000, 1.00000000000000 ) );
#107 = DIRECTION( '', ( 1.00000000000000, 0.000000000000000, 0.000000000000000 ) );
#108 =  ( LENGTH_UNIT(  )NAMED_UNIT( #59 )SI_UNIT( .MILLI., .METRE. ) );
#109 = SURFACE_SIDE_STYLE( '', ( #145 ) );
#110 = EDGE_LOOP( '', ( #146 ) );
#111 = AXIS2_PLACEMENT_3D( '', #147, #148, #149 );
#112 = SURFACE_SIDE_STYLE( '', ( #150 ) );
#113 = EDGE_LOOP( '', ( #151 ) );
#114 = EDGE_LOOP( '', ( #152 ) );
#115 = AXIS2_PLACEMENT_3D( '', #153, #154, #155 );
#116 = SURFACE_SIDE_STYLE( '', ( #156 ) );
#117 = EDGE_LOOP( '', ( #157 ) );
#118 = EDGE_LOOP( '', ( #158 ) );
#119 = AXIS2_PLACEMENT_3D( '', #159, #160, #161 );
#120 = SURFACE_SIDE_STYLE( '', ( #162 ) );
#121 = EDGE_LOOP( '', ( #163 ) );
#122 = EDGE_LOOP( '', ( #164 ) );
#123 = AXIS2_PLACEMENT_3D( '', #165, #166, #167 );
#124 = SURFACE_SIDE_STYLE( '', ( #168 ) );
#125 = EDGE_LOOP( '', ( #169 ) );
#126 = EDGE_LOOP( '', ( #170 ) );
#127 = AXIS2_PLACEMENT_3D( '', #171, #172, #173 );
#128 = SURFACE_SIDE_STYLE( '', ( #174 ) );
#129 = EDGE_LOOP( '', ( #175 ) );
#130 = EDGE_LOOP( '', ( #176 ) );
#131 = AXIS2_PLACEMENT_3D( '', #177, #178, #179 );
#132 = SURFACE_SIDE_STYLE( '', ( #180 ) );
#133 = EDGE_LOOP( '', ( #181 ) );
#134 = EDGE_LOOP( '', ( #182 ) );
#135 = AXIS2_PLACEMENT_3D( '', #183, #184, #185 );
#136 = SURFACE_SIDE_STYLE( '', ( #186 ) );
#137 = EDGE_LOOP( '', ( #187 ) );
#138 = EDGE_LOOP( '', ( #188 ) );
#139 = AXIS2_PLACEMENT_3D( '', #189, #190, #191 );
#140 = SURFACE_SIDE_STYLE( '', ( #192 ) );
#141 = EDGE_LOOP( '', ( #193 ) );
#142 = VERTEX_LOOP( '', #194 );
#143 = AXIS2_PLACEMENT_3D( '', #195, #196, #197 );
#145 = SURFACE_STYLE_FILL_AREA( #198 );
#146 = ORIENTED_EDGE( '', *, *, #199, .F. );
#147 = CARTESIAN_POINT( '', ( 0.000000000000000, 0.000000000000000, 18.5000000000000 ) );
#148 = DIRECTION( '', ( 0.000000000000000, 0.000000000000000, 1.00000000000000 ) );
#149 = DIRECTION( '', ( 1.00000000000000, 0.000000000000000, 0.000000000000000 ) );
#150 = SURFACE_STYLE_FILL_AREA( #200 );
#151 = ORIENTED_EDGE( '', *, *, #201, .F. );
#152 = ORIENTED_EDGE( '', *, *, #202, .F. );
#153 = CARTESIAN_POINT( '', ( 0.000000000000000, 0.000000000000000, 18.5000000000000 ) );
#154 = DIRECTION( '', ( 0.000000000000000, 0.000000000000000, 1.00000000000000 ) );
#155 = DIRECTION( '', ( 1.00000000000000, 0.000000000000000, 0.000000000000000 ) );
#156 = SURFACE_STYLE_FILL_AREA( #203 );
#157 = ORIENTED_EDGE( '', *, *, #202, .T. );
#158 = ORIENTED_EDGE( '', *, *, #199, .T. );
#159 = CARTESIAN_POINT( '', ( 0.000000000000000, 0.000000000000000, 19.5000000000000 ) );
#160 = DIRECTION( '', ( 0.000000000000000, 0.000000000000000, 1.00000000000000 ) );
#161 = DIRECTION( '', ( 1.00000000000000, 0.000000000000000, 0.000000000000000 ) );
#162 = SURFACE_STYLE_FILL_AREA( #204 );
#163 = ORIENTED_EDGE( '', *, *, #205, .T. );
#164 = ORIENTED_EDGE( '', *, *, #206, .T. );
#165 = CARTESIAN_POINT( '', ( -1.71855894197763E-015, -2.77555756156303E-018, 0.0500000000000000 ) );
#166 = DIRECTION( '', ( 8.03695990824508E-017, 5.55111512312578E-017, -1.00000000000000 ) );
#167 = DIRECTION( '', ( 1.00000000000000, -2.60318243461985E-032, 8.03695990824508E-017 ) );
#168 = SURFACE_STYLE_FILL_AREA( #207 );
#169 = ORIENTED_EDGE( '', *, *, #205, .F. );
#170 = ORIENTED_EDGE( '', *, *, #208, .F. );
#171 = CARTESIAN_POINT( '', ( -1.71855894197763E-015, -2.77555756156303E-018, 0.0500000000000000 ) );
#172 = DIRECTION( '', ( 8.03695990824508E-017, 5.55111512312578E-017, -1.00000000000000 ) );
#173 = DIRECTION( '', ( 1.00000000000000, -2.60318243461986E-032, 8.03695990824508E-017 ) );
#174 = SURFACE_STYLE_FILL_AREA( #209 );
#175 = ORIENTED_EDGE( '', *, *, #210, .F. );
#176 = ORIENTED_EDGE( '', *, *, #211, .T. );
#177 = CARTESIAN_POINT( '', ( 0.000000000000000, 0.000000000000000, 57.1500000000000 ) );
#178 = DIRECTION( '', ( -0.000000000000000, -0.000000000000000, -1.00000000000000 ) );
#179 = DIRECTION( '', ( 1.00000000000000, 0.000000000000000, 0.000000000000000 ) );
#180 = SURFACE_STYLE_FILL_AREA( #212 );
#181 = ORIENTED_EDGE( '', *, *, #208, .T. );
#182 = ORIENTED_EDGE( '', *, *, #211, .F. );
#183 = CARTESIAN_POINT( '', ( 3.16712709778518E-015, -2.77555756156324E-018, 0.0500000000000000 ) );
#184 = DIRECTION( '', ( -8.03695990824508E-017, -5.55111512312578E-017, 1.00000000000000 ) );
#185 = DIRECTION( '', ( -1.00000000000000, 2.60318243461985E-032, -8.03695990824508E-017 ) );
#186 = SURFACE_STYLE_FILL_AREA( #213 );
#187 = ORIENTED_EDGE( '', *, *, #201, .T. );
#188 = ORIENTED_EDGE( '', *, *, #210, .T. );
#189 = CARTESIAN_POINT( '', ( 9.00000000000000, 0.000000000000000, -2.71050543121376E-016 ) );
#190 = DIRECTION( '', ( 0.000000000000000, 0.000000000000000, -1.00000000000000 ) );
#191 = DIRECTION( '', ( -1.00000000000000, 0.000000000000000, 0.000000000000000 ) );
#192 = SURFACE_STYLE_FILL_AREA( #214 );
#193 = ORIENTED_EDGE( '', *, *, #206, .F. );
#194 = VERTEX_POINT( '', #215 );
#195 = CARTESIAN_POINT( '', ( -3.28286086692043E-015, -1.08323635017747E-015, 19.5138512920537 ) );
#196 = DIRECTION( '', ( 8.03695990824508E-017, 5.55111512312578E-017, -1.00000000000000 ) );
#197 = DIRECTION( '', ( -1.00000000000000, 2.60318243461985E-032, -8.03695990824508E-017 ) );
#198 = FILL_AREA_STYLE( '', ( #216 ) );
#199 = EDGE_CURVE( '', #217, #217, #218, .F. );
#200 = FILL_AREA_STYLE( '', ( #219 ) );
#201 = EDGE_CURVE( '', #220, #220, #221, .T. );
#202 = EDGE_CURVE( '', #222, #222, #223, .F. );
#203 = FILL_AREA_STYLE( '', ( #224 ) );
#204 = FILL_AREA_STYLE( '', ( #225 ) );
#205 = EDGE_CURVE( '', #226, #226, #227, .F. );
#206 = EDGE_CURVE( '', #228, #228, #229, .T. );
#207 = FILL_AREA_STYLE( '', ( #230 ) );
#208 = EDGE_CURVE( '', #231, #231, #232, .T. );
#209 = FILL_AREA_STYLE( '', ( #233 ) );
#210 = EDGE_CURVE( '', #234, #234, #235, .T. );
#211 = EDGE_CURVE( '', #236, #236, #237, .T. );
#212 = FILL_AREA_STYLE( '', ( #238 ) );
#213 = FILL_AREA_STYLE( '', ( #239 ) );
#214 = FILL_AREA_STYLE( '', ( #240 ) );
#215 = CARTESIAN_POINT( '', ( -3.52687492133277E-015, -1.25177646026486E-015, 22.5500000000000 ) );
#216 = FILL_AREA_STYLE_COLOUR( '', #241 );
#217 = VERTEX_POINT( '', #242 );
#218 = CIRCLE( '', #243, 20.3929083109876 );
#219 = FILL_AREA_STYLE_COLOUR( '', #244 );
#220 = VERTEX_POINT( '', #245 );
#221 = CIRCLE( '', #246, 8.83176086632783 );
#222 = VERTEX_POINT( '', #247 );
#223 = CIRCLE( '', #248, 20.4994842229491 );
#224 = FILL_AREA_STYLE_COLOUR( '', #249 );
#225 = FILL_AREA_STYLE_COLOUR( '', #250 );
#226 = VERTEX_POINT( '', #251 );
#227 = CIRCLE( '', #252, 5.05300000000000 );
#228 = VERTEX_POINT( '', #253 );
#229 = CIRCLE( '', #254, 5.05300000000000 );
#230 = FILL_AREA_STYLE_COLOUR( '', #255 );
#231 = VERTEX_POINT( '', #256 );
#232 = CIRCLE( '', #257, 6.05300000000000 );
#233 = FILL_AREA_STYLE_COLOUR( '', #258 );
#234 = VERTEX_POINT( '', #259 );
#235 = CIRCLE( '', #260, 7.00000000000000 );
#236 = VERTEX_POINT( '', #261 );
#237 = CIRCLE( '', #262, 7.00000000000000 );
#238 = FILL_AREA_STYLE_COLOUR( '', #263 );
#239 = FILL_AREA_STYLE_COLOUR( '', #264 );
#240 = FILL_AREA_STYLE_COLOUR( '', #265 );
#241 = COLOUR_RGB( '', 0.200000002980232, 0.200000002980232, 0.200000002980232 );
#242 = CARTESIAN_POINT( '', ( 20.3929083109876, 0.000000000000000, 20.5926754692617 ) );
#243 = AXIS2_PLACEMENT_3D( '', #266, #267, #268 );
#244 = COLOUR_RGB( '', 0.200000002980232, 0.200000002980232, 0.200000002980232 );
#245 = CARTESIAN_POINT( '', ( -8.83176086632783, 0.000000000000000, 0.000000000000000 ) );
#246 = AXIS2_PLACEMENT_3D( '', #269, #270, #271 );
#247 = CARTESIAN_POINT( '', ( -20.4994842229491, 0.000000000000000, 18.3545813180687 ) );
#248 = AXIS2_PLACEMENT_3D( '', #272, #273, #274 );
#249 = COLOUR_RGB( '', 0.200000002980232, 0.200000002980232, 0.200000002980232 );
#250 = COLOUR_RGB( '', 0.752941191196442, 0.752941191196442, 0.752941191196442 );
#251 = CARTESIAN_POINT( '', ( -5.05300000000000, -5.82867087928208E-017, 1.05000000000000 ) );
#252 = AXIS2_PLACEMENT_3D( '', #275, #276, #277 );
#253 = CARTESIAN_POINT( '', ( -5.05300000000000, -1.08323635017747E-015, 19.5138512920537 ) );
#254 = AXIS2_PLACEMENT_3D( '', #278, #279, #280 );
#255 = COLOUR_RGB( '', 0.666666686534882, 0.400000005960464, 0.133333340287209 );
#256 = CARTESIAN_POINT( '', ( -6.05300000000000, -2.77555756156287E-018, 0.0499999999999995 ) );
#257 = AXIS2_PLACEMENT_3D( '', #281, #282, #283 );
#258 = COLOUR_RGB( '', 0.200000002980232, 0.200000002980232, 0.200000002980232 );
#259 = CARTESIAN_POINT( '', ( 7.00000000000000, 0.000000000000000, 0.000000000000000 ) );
#260 = AXIS2_PLACEMENT_3D( '', #284, #285, #286 );
#261 = CARTESIAN_POINT( '', ( -7.00000000000000, -2.77555756156284E-018, 0.0499999999999994 ) );
#262 = AXIS2_PLACEMENT_3D( '', #287, #288, #289 );
#263 = COLOUR_RGB( '', 0.666666686534882, 0.400000005960464, 0.133333340287209 );
#264 = COLOUR_RGB( '', 0.200000002980232, 0.200000002980232, 0.200000002980232 );
#265 = COLOUR_RGB( '', 0.666666686534882, 0.400000005960464, 0.133333340287209 );
#266 = CARTESIAN_POINT( '', ( 0.000000000000000, 0.000000000000000, 20.5926754692617 ) );
#267 = DIRECTION( '', ( 0.000000000000000, 0.000000000000000, 1.00000000000000 ) );
#268 = DIRECTION( '', ( 1.00000000000000, 0.000000000000000, 0.000000000000000 ) );
#269 = CARTESIAN_POINT( '', ( 0.000000000000000, 0.000000000000000, 0.000000000000000 ) );
#270 = DIRECTION( '', ( 0.000000000000000, 0.000000000000000, -1.00000000000000 ) );
#271 = DIRECTION( '', ( -1.00000000000000, 0.000000000000000, 0.000000000000000 ) );
#272 = CARTESIAN_POINT( '', ( 0.000000000000000, 0.000000000000000, 18.3545813180687 ) );
#273 = DIRECTION( '', ( 0.000000000000000, 0.000000000000000, -1.00000000000000 ) );
#274 = DIRECTION( '', ( -1.00000000000000, 0.000000000000000, 0.000000000000000 ) );
#275 = CARTESIAN_POINT( '', ( -1.79892854106008E-015, -5.82867087928209E-017, 1.05000000000000 ) );
#276 = DIRECTION( '', ( -8.03695990824508E-017, -5.55111512312578E-017, 1.00000000000000 ) );
#277 = DIRECTION( '', ( -1.00000000000000, 2.60318243461985E-032, -8.03695990824508E-017 ) );
#278 = CARTESIAN_POINT( '', ( -3.28286086692043E-015, -1.08323635017747E-015, 19.5138512920537 ) );
#279 = DIRECTION( '', ( -8.03695990824508E-017, -5.55111512312578E-017, 1.00000000000000 ) );
#280 = DIRECTION( '', ( -1.00000000000000, 2.60318243461985E-032, -8.03695990824508E-017 ) );
#281 = CARTESIAN_POINT( '', ( -1.71855894197763E-015, -2.77555756156303E-018, 0.0500000000000000 ) );
#282 = DIRECTION( '', ( -8.03695990824508E-017, -5.55111512312578E-017, 1.00000000000000 ) );
#283 = DIRECTION( '', ( -1.00000000000000, 2.60318243461986E-032, -8.03695990824508E-017 ) );
#284 = CARTESIAN_POINT( '', ( 0.000000000000000, 0.000000000000000, 0.000000000000000 ) );
#285 = DIRECTION( '', ( 0.000000000000000, 0.000000000000000, 1.00000000000000 ) );
#286 = DIRECTION( '', ( 1.00000000000000, 0.000000000000000, 0.000000000000000 ) );
#287 = CARTESIAN_POINT( '', ( -4.01847995412280E-018, -2.77555756156303E-018, 0.0500000000000000 ) );
#288 = DIRECTION( '', ( -8.03695990824508E-017, -5.55111512312578E-017, 1.00000000000000 ) );
#289 = DIRECTION( '', ( -1.00000000000000, 2.60318243461985E-032, -8.03695990824508E-017 ) );
ENDSEC;
END-ISO-10303-21;
