ISO-10303-21;
HEADER;
FILE_DESCRIPTION( ( 'Unknown' ), '1' );
FILE_NAME( '//SBS2003/HD_Usb/Disegni/10_GAMM_CD/2- Gamm_STEP/03 - MANOPOLE/03_19.1-PBO/6132060_PBO47_M14.stp', 'Unknown', ( 'Unknown' ), ( 'Unknown' ), 'PSStep 11.0', 'Unknown', '  ' );
FILE_SCHEMA( ( 'AUTOMOTIVE_DESIGN { 1 0 10303 214 1 1 1 1 }' ) );
ENDSEC;
DATA;
#1 = MECHANICAL_DESIGN_GEOMETRIC_PRESENTATION_REPRESENTATION( ' ', ( #10, #11, #12, #13, #14, #15, #16, #17, #18 ), #6 );
#2 = PRODUCT_DEFINITION_CONTEXT( '', #19, 'design' );
#3 = APPLICATION_PROTOCOL_DEFINITION( 'INTERNATIONAL STANDARD', 'automotive_design', 2001, #19 );
#4 = PRODUCT_CATEGORY_RELATIONSHIP( 'NONE', 'NONE', #20, #21 );
#5 = SHAPE_DEFINITION_REPRESENTATION( #22, #23 );
#6 =  ( GEOMETRIC_REPRESENTATION_CONTEXT( 3 )GLOBAL_UNCERTAINTY_ASSIGNED_CONTEXT( ( #26 ) )GLOBAL_UNIT_ASSIGNED_CONTEXT( ( #28, #29, #30 ) )REPRESENTATION_CONTEXT( 'NONE', 'WORKSPACE' ) );
#10 = STYLED_ITEM( '', ( #32 ), #33 );
#11 = STYLED_ITEM( '', ( #34 ), #35 );
#12 = STYLED_ITEM( '', ( #36 ), #37 );
#13 = STYLED_ITEM( '', ( #38 ), #39 );
#14 = STYLED_ITEM( '', ( #40 ), #41 );
#15 = STYLED_ITEM( '', ( #42 ), #43 );
#16 = STYLED_ITEM( '', ( #44 ), #45 );
#17 = STYLED_ITEM( '', ( #46 ), #47 );
#18 = STYLED_ITEM( '', ( #48 ), #49 );
#19 = APPLICATION_CONTEXT( 'core data for automotive mechanical design processes' );
#20 = PRODUCT_CATEGORY( 'part', 'NONE' );
#21 = PRODUCT_RELATED_PRODUCT_CATEGORY( 'detail', ' ', ( #50 ) );
#22 = PRODUCT_DEFINITION_SHAPE( 'NONE', 'NONE', #51 );
#23 = ADVANCED_BREP_SHAPE_REPRESENTATION( '6132060', ( #52, #53 ), #6 );
#26 = UNCERTAINTY_MEASURE_WITH_UNIT( LENGTH_MEASURE( 0.00100000000000000 ), #28, '', '' );
#28 =  ( CONVERSION_BASED_UNIT( 'MILLIMETRE', #56 )LENGTH_UNIT(  )NAMED_UNIT( #59 ) );
#29 =  ( NAMED_UNIT( #61 )PLANE_ANGLE_UNIT(  )SI_UNIT( $, .RADIAN. ) );
#30 =  ( NAMED_UNIT( #61 )SI_UNIT( $, .STERADIAN. )SOLID_ANGLE_UNIT(  ) );
#32 = PRESENTATION_STYLE_ASSIGNMENT( ( #67 ) );
#33 = ADVANCED_FACE( '', ( #68, #69 ), #70, .F. );
#34 = PRESENTATION_STYLE_ASSIGNMENT( ( #71 ) );
#35 = ADVANCED_FACE( '', ( #72, #73 ), #74, .F. );
#36 = PRESENTATION_STYLE_ASSIGNMENT( ( #75 ) );
#37 = ADVANCED_FACE( '', ( #76, #77 ), #78, .F. );
#38 = PRESENTATION_STYLE_ASSIGNMENT( ( #79 ) );
#39 = ADVANCED_FACE( '', ( #80, #81 ), #82, .T. );
#40 = PRESENTATION_STYLE_ASSIGNMENT( ( #83 ) );
#41 = ADVANCED_FACE( '', ( #84, #85 ), #86, .F. );
#42 = PRESENTATION_STYLE_ASSIGNMENT( ( #87 ) );
#43 = ADVANCED_FACE( '', ( #88, #89 ), #90, .T. );
#44 = PRESENTATION_STYLE_ASSIGNMENT( ( #91 ) );
#45 = ADVANCED_FACE( '', ( #92, #93 ), #94, .F. );
#46 = PRESENTATION_STYLE_ASSIGNMENT( ( #95 ) );
#47 = ADVANCED_FACE( '', ( #96, #97 ), #98, .F. );
#48 = PRESENTATION_STYLE_ASSIGNMENT( ( #99 ) );
#49 = ADVANCED_FACE( '', ( #100 ), #101, .T. );
#50 = PRODUCT( '6132060', '6132060', 'PART-6132060-DESC', ( #102 ) );
#51 = PRODUCT_DEFINITION( 'NONE', 'NONE', #103, #2 );
#52 = MANIFOLD_SOLID_BREP( '6132060', #104 );
#53 = AXIS2_PLACEMENT_3D( '', #105, #106, #107 );
#56 = LENGTH_MEASURE_WITH_UNIT( LENGTH_MEASURE( 1.00000000000000 ), #108 );
#59 = DIMENSIONAL_EXPONENTS( 1.00000000000000, 0.000000000000000, 0.000000000000000, 0.000000000000000, 0.000000000000000, 0.000000000000000, 0.000000000000000 );
#61 = DIMENSIONAL_EXPONENTS( 0.000000000000000, 0.000000000000000, 0.000000000000000, 0.000000000000000, 0.000000000000000, 0.000000000000000, 0.000000000000000 );
#67 = SURFACE_STYLE_USAGE( .BOTH., #109 );
#68 = FACE_OUTER_BOUND( '', #110, .T. );
#69 = FACE_OUTER_BOUND( '', #111, .T. );
#70 = CYLINDRICAL_SURFACE( '', #112, 5.91750000000000 );
#71 = SURFACE_STYLE_USAGE( .BOTH., #113 );
#72 = FACE_OUTER_BOUND( '', #114, .T. );
#73 = FACE_BOUND( '', #115, .T. );
#74 = CONICAL_SURFACE( '', #116, 5.91750000000000, 1.02974425867665 );
#75 = SURFACE_STYLE_USAGE( .BOTH., #117 );
#76 = FACE_BOUND( '', #118, .T. );
#77 = FACE_OUTER_BOUND( '', #119, .T. );
#78 = CONICAL_SURFACE( '', #120, 7.41750000000000, 0.785398163397448 );
#79 = SURFACE_STYLE_USAGE( .BOTH., #121 );
#80 = FACE_OUTER_BOUND( '', #122, .T. );
#81 = FACE_BOUND( '', #123, .T. );
#82 = PLANE( '', #124 );
#83 = SURFACE_STYLE_USAGE( .BOTH., #125 );
#84 = FACE_BOUND( '', #126, .T. );
#85 = FACE_OUTER_BOUND( '', #127, .T. );
#86 = PLANE( '', #128 );
#87 = SURFACE_STYLE_USAGE( .BOTH., #129 );
#88 = FACE_OUTER_BOUND( '', #130, .T. );
#89 = FACE_OUTER_BOUND( '', #131, .T. );
#90 = SPHERICAL_SURFACE( '', #132, 23.5000000000000 );
#91 = SURFACE_STYLE_USAGE( .BOTH., #133 );
#92 = FACE_OUTER_BOUND( '', #134, .T. );
#93 = FACE_OUTER_BOUND( '', #135, .T. );
#94 = TOROIDAL_SURFACE( '', #136, 23.7500000000000, 1.25000000000000 );
#95 = SURFACE_STYLE_USAGE( .BOTH., #137 );
#96 = FACE_OUTER_BOUND( '', #138, .T. );
#97 = FACE_OUTER_BOUND( '', #139, .T. );
#98 = CYLINDRICAL_SURFACE( '', #140, 8.50000000000000 );
#99 = SURFACE_STYLE_USAGE( .BOTH., #141 );
#100 = FACE_OUTER_BOUND( '', #142, .T. );
#101 = SPHERICAL_SURFACE( '', #143, 23.5000000000000 );
#102 = PRODUCT_CONTEXT( '', #19, 'mechanical' );
#103 = PRODUCT_DEFINITION_FORMATION_WITH_SPECIFIED_SOURCE( ' ', 'NONE', #50, .NOT_KNOWN. );
#104 = CLOSED_SHELL( '', ( #47, #49, #35, #37, #33, #41, #39, #43, #45 ) );
#105 = CARTESIAN_POINT( '', ( 0.000000000000000, 0.000000000000000, 0.000000000000000 ) );
#106 = DIRECTION( '', ( 0.000000000000000, 0.000000000000000, 1.00000000000000 ) );
#107 = DIRECTION( '', ( 1.00000000000000, 0.000000000000000, 0.000000000000000 ) );
#108 =  ( LENGTH_UNIT(  )NAMED_UNIT( #59 )SI_UNIT( .MILLI., .METRE. ) );
#109 = SURFACE_SIDE_STYLE( '', ( #145 ) );
#110 = EDGE_LOOP( '', ( #146 ) );
#111 = EDGE_LOOP( '', ( #147 ) );
#112 = AXIS2_PLACEMENT_3D( '', #148, #149, #150 );
#113 = SURFACE_SIDE_STYLE( '', ( #151 ) );
#114 = EDGE_LOOP( '', ( #152 ) );
#115 = VERTEX_LOOP( '', #153 );
#116 = AXIS2_PLACEMENT_3D( '', #154, #155, #156 );
#117 = SURFACE_SIDE_STYLE( '', ( #157 ) );
#118 = EDGE_LOOP( '', ( #158 ) );
#119 = EDGE_LOOP( '', ( #159 ) );
#120 = AXIS2_PLACEMENT_3D( '', #160, #161, #162 );
#121 = SURFACE_SIDE_STYLE( '', ( #163 ) );
#122 = EDGE_LOOP( '', ( #164 ) );
#123 = EDGE_LOOP( '', ( #165 ) );
#124 = AXIS2_PLACEMENT_3D( '', #166, #167, #168 );
#125 = SURFACE_SIDE_STYLE( '', ( #169 ) );
#126 = EDGE_LOOP( '', ( #170 ) );
#127 = EDGE_LOOP( '', ( #171 ) );
#128 = AXIS2_PLACEMENT_3D( '', #172, #173, #174 );
#129 = SURFACE_SIDE_STYLE( '', ( #175 ) );
#130 = EDGE_LOOP( '', ( #176 ) );
#131 = EDGE_LOOP( '', ( #177 ) );
#132 = AXIS2_PLACEMENT_3D( '', #178, #179, #180 );
#133 = SURFACE_SIDE_STYLE( '', ( #181 ) );
#134 = EDGE_LOOP( '', ( #182 ) );
#135 = EDGE_LOOP( '', ( #183 ) );
#136 = AXIS2_PLACEMENT_3D( '', #184, #185, #186 );
#137 = SURFACE_SIDE_STYLE( '', ( #187 ) );
#138 = EDGE_LOOP( '', ( #188 ) );
#139 = EDGE_LOOP( '', ( #189 ) );
#140 = AXIS2_PLACEMENT_3D( '', #190, #191, #192 );
#141 = SURFACE_SIDE_STYLE( '', ( #193 ) );
#142 = EDGE_LOOP( '', ( #194 ) );
#143 = AXIS2_PLACEMENT_3D( '', #195, #196, #197 );
#145 = SURFACE_STYLE_FILL_AREA( #198 );
#146 = ORIENTED_EDGE( '', *, *, #199, .T. );
#147 = ORIENTED_EDGE( '', *, *, #200, .T. );
#148 = CARTESIAN_POINT( '', ( 5.55111512312524E-018, -5.55111512312517E-018, 0.0499999999999983 ) );
#149 = DIRECTION( '', ( -0.000000000000000, 0.000000000000000, -1.00000000000000 ) );
#150 = DIRECTION( '', ( 0.000000000000000, 1.00000000000000, 0.000000000000000 ) );
#151 = SURFACE_STYLE_FILL_AREA( #201 );
#152 = ORIENTED_EDGE( '', *, *, #200, .F. );
#153 = VERTEX_POINT( '', #202 );
#154 = CARTESIAN_POINT( '', ( 5.55111512312524E-018, -5.55111512312517E-018, 19.9944072869044 ) );
#155 = DIRECTION( '', ( 0.000000000000000, -0.000000000000000, -1.00000000000000 ) );
#156 = DIRECTION( '', ( 0.000000000000000, -1.00000000000000, 0.000000000000000 ) );
#157 = SURFACE_STYLE_FILL_AREA( #203 );
#158 = ORIENTED_EDGE( '', *, *, #199, .F. );
#159 = ORIENTED_EDGE( '', *, *, #204, .F. );
#160 = CARTESIAN_POINT( '', ( 5.55111512312524E-018, -5.55111512312517E-018, 0.0499999999999983 ) );
#161 = DIRECTION( '', ( -0.000000000000000, 0.000000000000000, -1.00000000000000 ) );
#162 = DIRECTION( '', ( -1.00000000000000, 0.000000000000000, 0.000000000000000 ) );
#163 = SURFACE_STYLE_FILL_AREA( #205 );
#164 = ORIENTED_EDGE( '', *, *, #206, .T. );
#165 = ORIENTED_EDGE( '', *, *, #207, .T. );
#166 = CARTESIAN_POINT( '', ( 10.0000000000000, 0.000000000000000, -1.35525271560688E-016 ) );
#167 = DIRECTION( '', ( 0.000000000000000, 0.000000000000000, -1.00000000000000 ) );
#168 = DIRECTION( '', ( -1.00000000000000, 0.000000000000000, 0.000000000000000 ) );
#169 = SURFACE_STYLE_FILL_AREA( #208 );
#170 = ORIENTED_EDGE( '', *, *, #204, .T. );
#171 = ORIENTED_EDGE( '', *, *, #209, .F. );
#172 = CARTESIAN_POINT( '', ( 5.55111512312526E-018, 4.32779823212881E-016, 0.0499999999999983 ) );
#173 = DIRECTION( '', ( 0.000000000000000, 0.000000000000000, 1.00000000000000 ) );
#174 = DIRECTION( '', ( 1.00000000000000, 0.000000000000000, 0.000000000000000 ) );
#175 = SURFACE_STYLE_FILL_AREA( #210 );
#176 = ORIENTED_EDGE( '', *, *, #206, .F. );
#177 = ORIENTED_EDGE( '', *, *, #211, .F. );
#178 = CARTESIAN_POINT( '', ( 0.000000000000000, 0.000000000000000, 21.5000000000000 ) );
#179 = DIRECTION( '', ( 0.000000000000000, 0.000000000000000, 1.00000000000000 ) );
#180 = DIRECTION( '', ( 1.00000000000000, 0.000000000000000, 0.000000000000000 ) );
#181 = SURFACE_STYLE_FILL_AREA( #212 );
#182 = ORIENTED_EDGE( '', *, *, #211, .T. );
#183 = ORIENTED_EDGE( '', *, *, #213, .T. );
#184 = CARTESIAN_POINT( '', ( 0.000000000000000, 0.000000000000000, 22.5000000000000 ) );
#185 = DIRECTION( '', ( 0.000000000000000, 0.000000000000000, 1.00000000000000 ) );
#186 = DIRECTION( '', ( 1.00000000000000, 0.000000000000000, 0.000000000000000 ) );
#187 = SURFACE_STYLE_FILL_AREA( #214 );
#188 = ORIENTED_EDGE( '', *, *, #207, .F. );
#189 = ORIENTED_EDGE( '', *, *, #209, .T. );
#190 = CARTESIAN_POINT( '', ( 0.000000000000000, 0.000000000000000, 57.1500000000000 ) );
#191 = DIRECTION( '', ( -0.000000000000000, -0.000000000000000, -1.00000000000000 ) );
#192 = DIRECTION( '', ( 1.00000000000000, 0.000000000000000, 0.000000000000000 ) );
#193 = SURFACE_STYLE_FILL_AREA( #215 );
#194 = ORIENTED_EDGE( '', *, *, #213, .F. );
#195 = CARTESIAN_POINT( '', ( 0.000000000000000, 0.000000000000000, 21.5000000000000 ) );
#196 = DIRECTION( '', ( 0.000000000000000, 0.000000000000000, 1.00000000000000 ) );
#197 = DIRECTION( '', ( 1.00000000000000, 0.000000000000000, 0.000000000000000 ) );
#198 = FILL_AREA_STYLE( '', ( #216 ) );
#199 = EDGE_CURVE( '', #217, #217, #218, .F. );
#200 = EDGE_CURVE( '', #219, #219, #220, .T. );
#201 = FILL_AREA_STYLE( '', ( #221 ) );
#202 = CARTESIAN_POINT( '', ( 5.55111512312524E-018, -5.55111512312517E-018, 23.5500000000000 ) );
#203 = FILL_AREA_STYLE( '', ( #222 ) );
#204 = EDGE_CURVE( '', #223, #223, #224, .T. );
#205 = FILL_AREA_STYLE( '', ( #225 ) );
#206 = EDGE_CURVE( '', #226, #226, #227, .T. );
#207 = EDGE_CURVE( '', #228, #228, #229, .T. );
#208 = FILL_AREA_STYLE( '', ( #230 ) );
#209 = EDGE_CURVE( '', #231, #231, #232, .T. );
#210 = FILL_AREA_STYLE( '', ( #233 ) );
#211 = EDGE_CURVE( '', #234, #234, #235, .F. );
#212 = FILL_AREA_STYLE( '', ( #236 ) );
#213 = EDGE_CURVE( '', #237, #237, #238, .F. );
#214 = FILL_AREA_STYLE( '', ( #239 ) );
#215 = FILL_AREA_STYLE( '', ( #240 ) );
#216 = FILL_AREA_STYLE_COLOUR( '', #241 );
#217 = VERTEX_POINT( '', #242 );
#218 = CIRCLE( '', #243, 5.91750000000000 );
#219 = VERTEX_POINT( '', #244 );
#220 = CIRCLE( '', #245, 5.91750000000000 );
#221 = FILL_AREA_STYLE_COLOUR( '', #246 );
#222 = FILL_AREA_STYLE_COLOUR( '', #247 );
#223 = VERTEX_POINT( '', #248 );
#224 = CIRCLE( '', #249, 7.41750000000000 );
#225 = FILL_AREA_STYLE_COLOUR( '', #250 );
#226 = VERTEX_POINT( '', #251 );
#227 = CIRCLE( '', #252, 9.48683298050513 );
#228 = VERTEX_POINT( '', #253 );
#229 = CIRCLE( '', #254, 8.50000000000000 );
#230 = FILL_AREA_STYLE_COLOUR( '', #255 );
#231 = VERTEX_POINT( '', #256 );
#232 = CIRCLE( '', #257, 8.50000000000000 );
#233 = FILL_AREA_STYLE_COLOUR( '', #258 );
#234 = VERTEX_POINT( '', #259 );
#235 = CIRCLE( '', #260, 23.4989273867700 );
#236 = FILL_AREA_STYLE_COLOUR( '', #261 );
#237 = VERTEX_POINT( '', #262 );
#238 = CIRCLE( '', #263, 23.3968805990723 );
#239 = FILL_AREA_STYLE_COLOUR( '', #264 );
#240 = FILL_AREA_STYLE_COLOUR( '', #265 );
#241 = COLOUR_RGB( '', 0.752941191196442, 0.752941191196442, 0.752941191196442 );
#242 = CARTESIAN_POINT( '', ( 5.91750000000000, -5.55111512312517E-018, 1.55000000000000 ) );
#243 = AXIS2_PLACEMENT_3D( '', #266, #267, #268 );
#244 = CARTESIAN_POINT( '', ( 5.55111512312524E-018, -5.91750000000000, 19.9944072869044 ) );
#245 = AXIS2_PLACEMENT_3D( '', #269, #270, #271 );
#246 = COLOUR_RGB( '', 0.666666686534882, 0.400000005960464, 0.133333340287209 );
#247 = COLOUR_RGB( '', 0.666666686534882, 0.400000005960464, 0.133333340287209 );
#248 = CARTESIAN_POINT( '', ( 7.41750000000000, -5.55111512312517E-018, 0.0499999999999983 ) );
#249 = AXIS2_PLACEMENT_3D( '', #272, #273, #274 );
#250 = COLOUR_RGB( '', 0.200000002980232, 0.200000002980232, 0.200000002980232 );
#251 = CARTESIAN_POINT( '', ( -9.48683298050513, 0.000000000000000, 0.000000000000000 ) );
#252 = AXIS2_PLACEMENT_3D( '', #275, #276, #277 );
#253 = CARTESIAN_POINT( '', ( 8.50000000000000, 0.000000000000000, 0.000000000000000 ) );
#254 = AXIS2_PLACEMENT_3D( '', #278, #279, #280 );
#255 = COLOUR_RGB( '', 0.666666686534882, 0.400000005960464, 0.133333340287209 );
#256 = CARTESIAN_POINT( '', ( 8.50000000000000, -5.55111512312517E-018, 0.0499999999999980 ) );
#257 = AXIS2_PLACEMENT_3D( '', #281, #282, #283 );
#258 = COLOUR_RGB( '', 0.200000002980232, 0.200000002980232, 0.200000002980232 );
#259 = CARTESIAN_POINT( '', ( -23.4989273867700, 0.000000000000000, 21.2754745642136 ) );
#260 = AXIS2_PLACEMENT_3D( '', #284, #285, #286 );
#261 = COLOUR_RGB( '', 0.200000002980232, 0.200000002980232, 0.200000002980232 );
#262 = CARTESIAN_POINT( '', ( 23.3968805990723, 0.000000000000000, 23.6990857720325 ) );
#263 = AXIS2_PLACEMENT_3D( '', #287, #288, #289 );
#264 = COLOUR_RGB( '', 0.200000002980232, 0.200000002980232, 0.200000002980232 );
#265 = COLOUR_RGB( '', 0.200000002980232, 0.200000002980232, 0.200000002980232 );
#266 = CARTESIAN_POINT( '', ( 5.55111512312524E-018, -5.55111512312517E-018, 1.55000000000000 ) );
#267 = DIRECTION( '', ( 0.000000000000000, 0.000000000000000, 1.00000000000000 ) );
#268 = DIRECTION( '', ( 1.00000000000000, 0.000000000000000, 0.000000000000000 ) );
#269 = CARTESIAN_POINT( '', ( 5.55111512312524E-018, -5.55111512312517E-018, 19.9944072869044 ) );
#270 = DIRECTION( '', ( 0.000000000000000, 0.000000000000000, 1.00000000000000 ) );
#271 = DIRECTION( '', ( 0.000000000000000, -1.00000000000000, 0.000000000000000 ) );
#272 = CARTESIAN_POINT( '', ( 5.55111512312524E-018, -5.55111512312517E-018, 0.0499999999999983 ) );
#273 = DIRECTION( '', ( 0.000000000000000, 0.000000000000000, 1.00000000000000 ) );
#274 = DIRECTION( '', ( 1.00000000000000, 0.000000000000000, 0.000000000000000 ) );
#275 = CARTESIAN_POINT( '', ( 0.000000000000000, 0.000000000000000, 0.000000000000000 ) );
#276 = DIRECTION( '', ( 0.000000000000000, 0.000000000000000, -1.00000000000000 ) );
#277 = DIRECTION( '', ( -1.00000000000000, 0.000000000000000, 0.000000000000000 ) );
#278 = CARTESIAN_POINT( '', ( 0.000000000000000, 0.000000000000000, 0.000000000000000 ) );
#279 = DIRECTION( '', ( 0.000000000000000, 0.000000000000000, 1.00000000000000 ) );
#280 = DIRECTION( '', ( 1.00000000000000, 0.000000000000000, 0.000000000000000 ) );
#281 = CARTESIAN_POINT( '', ( 5.55111512312524E-018, -5.55111512312517E-018, 0.0499999999999980 ) );
#282 = DIRECTION( '', ( 0.000000000000000, 0.000000000000000, 1.00000000000000 ) );
#283 = DIRECTION( '', ( 1.00000000000000, 0.000000000000000, 0.000000000000000 ) );
#284 = CARTESIAN_POINT( '', ( 0.000000000000000, 0.000000000000000, 21.2754745642136 ) );
#285 = DIRECTION( '', ( 0.000000000000000, 0.000000000000000, -1.00000000000000 ) );
#286 = DIRECTION( '', ( -1.00000000000000, 0.000000000000000, 0.000000000000000 ) );
#287 = CARTESIAN_POINT( '', ( 0.000000000000000, 0.000000000000000, 23.6990857720325 ) );
#288 = DIRECTION( '', ( 0.000000000000000, 0.000000000000000, 1.00000000000000 ) );
#289 = DIRECTION( '', ( 1.00000000000000, 0.000000000000000, 0.000000000000000 ) );
ENDSEC;
END-ISO-10303-21;
