ISO-10303-21;
HEADER;
FILE_DESCRIPTION( ( 'Unknown' ), '1' );
FILE_NAME( '//SBS2003/HD_Usb/Disegni/10_GAMM_CD/2- Gamm_STEP/03 - MANOPOLE/03_19.1-PBO/6132065_PBO60_M12.stp', 'Unknown', ( 'Unknown' ), ( 'Unknown' ), 'PSStep 11.0', 'Unknown', '  ' );
FILE_SCHEMA( ( 'AUTOMOTIVE_DESIGN { 1 0 10303 214 1 1 1 1 }' ) );
ENDSEC;
DATA;
#1 = MECHANICAL_DESIGN_GEOMETRIC_PRESENTATION_REPRESENTATION( ' ', ( #10, #11, #12, #13, #14, #15, #16, #17, #18, #19, #20, #21, #22, #23 ), #6 );
#2 = PRODUCT_DEFINITION_CONTEXT( '', #24, 'design' );
#3 = APPLICATION_PROTOCOL_DEFINITION( 'INTERNATIONAL STANDARD', 'automotive_design', 2001, #24 );
#4 = PRODUCT_CATEGORY_RELATIONSHIP( 'NONE', 'NONE', #25, #26 );
#5 = SHAPE_DEFINITION_REPRESENTATION( #27, #28 );
#6 =  ( GEOMETRIC_REPRESENTATION_CONTEXT( 3 )GLOBAL_UNCERTAINTY_ASSIGNED_CONTEXT( ( #31 ) )GLOBAL_UNIT_ASSIGNED_CONTEXT( ( #33, #34, #35 ) )REPRESENTATION_CONTEXT( 'NONE', 'WORKSPACE' ) );
#10 = STYLED_ITEM( '', ( #37 ), #38 );
#11 = STYLED_ITEM( '', ( #39 ), #40 );
#12 = STYLED_ITEM( '', ( #41 ), #42 );
#13 = STYLED_ITEM( '', ( #43 ), #44 );
#14 = STYLED_ITEM( '', ( #45 ), #46 );
#15 = STYLED_ITEM( '', ( #47 ), #48 );
#16 = STYLED_ITEM( '', ( #49 ), #50 );
#17 = STYLED_ITEM( '', ( #51 ), #52 );
#18 = STYLED_ITEM( '', ( #53 ), #54 );
#19 = STYLED_ITEM( '', ( #55 ), #56 );
#20 = STYLED_ITEM( '', ( #57 ), #58 );
#21 = STYLED_ITEM( '', ( #59 ), #60 );
#22 = STYLED_ITEM( '', ( #61 ), #62 );
#23 = STYLED_ITEM( '', ( #63 ), #64 );
#24 = APPLICATION_CONTEXT( 'core data for automotive mechanical design processes' );
#25 = PRODUCT_CATEGORY( 'part', 'NONE' );
#26 = PRODUCT_RELATED_PRODUCT_CATEGORY( 'detail', ' ', ( #65 ) );
#27 = PRODUCT_DEFINITION_SHAPE( 'NONE', 'NONE', #66 );
#28 = ADVANCED_BREP_SHAPE_REPRESENTATION( '6132065', ( #67, #68 ), #6 );
#31 = UNCERTAINTY_MEASURE_WITH_UNIT( LENGTH_MEASURE( 0.00100000000000000 ), #33, '', '' );
#33 =  ( CONVERSION_BASED_UNIT( 'MILLIMETRE', #71 )LENGTH_UNIT(  )NAMED_UNIT( #74 ) );
#34 =  ( NAMED_UNIT( #76 )PLANE_ANGLE_UNIT(  )SI_UNIT( $, .RADIAN. ) );
#35 =  ( NAMED_UNIT( #76 )SI_UNIT( $, .STERADIAN. )SOLID_ANGLE_UNIT(  ) );
#37 = PRESENTATION_STYLE_ASSIGNMENT( ( #82 ) );
#38 = ADVANCED_FACE( '', ( #83, #84 ), #85, .T. );
#39 = PRESENTATION_STYLE_ASSIGNMENT( ( #86 ) );
#40 = ADVANCED_FACE( '', ( #87, #88 ), #89, .F. );
#41 = PRESENTATION_STYLE_ASSIGNMENT( ( #90 ) );
#42 = ADVANCED_FACE( '', ( #91, #92 ), #93, .F. );
#43 = PRESENTATION_STYLE_ASSIGNMENT( ( #94 ) );
#44 = ADVANCED_FACE( '', ( #95, #96 ), #97, .F. );
#45 = PRESENTATION_STYLE_ASSIGNMENT( ( #98 ) );
#46 = ADVANCED_FACE( '', ( #99, #100 ), #101, .F. );
#47 = PRESENTATION_STYLE_ASSIGNMENT( ( #102 ) );
#48 = ADVANCED_FACE( '', ( #103, #104 ), #105, .F. );
#49 = PRESENTATION_STYLE_ASSIGNMENT( ( #106 ) );
#50 = ADVANCED_FACE( '', ( #107, #108 ), #109, .F. );
#51 = PRESENTATION_STYLE_ASSIGNMENT( ( #110 ) );
#52 = ADVANCED_FACE( '', ( #111, #112 ), #113, .F. );
#53 = PRESENTATION_STYLE_ASSIGNMENT( ( #114 ) );
#54 = ADVANCED_FACE( '', ( #115, #116 ), #117, .F. );
#55 = PRESENTATION_STYLE_ASSIGNMENT( ( #118 ) );
#56 = ADVANCED_FACE( '', ( #119, #120 ), #121, .T. );
#57 = PRESENTATION_STYLE_ASSIGNMENT( ( #122 ) );
#58 = ADVANCED_FACE( '', ( #123, #124 ), #125, .F. );
#59 = PRESENTATION_STYLE_ASSIGNMENT( ( #126 ) );
#60 = ADVANCED_FACE( '', ( #127, #128 ), #129, .T. );
#61 = PRESENTATION_STYLE_ASSIGNMENT( ( #130 ) );
#62 = ADVANCED_FACE( '', ( #131 ), #132, .T. );
#63 = PRESENTATION_STYLE_ASSIGNMENT( ( #133 ) );
#64 = ADVANCED_FACE( '', ( #134, #135 ), #136, .T. );
#65 = PRODUCT( '6132065', '6132065', 'PART-6132065-DESC', ( #137 ) );
#66 = PRODUCT_DEFINITION( 'NONE', 'NONE', #138, #2 );
#67 = BREP_WITH_VOIDS( '6132065', #139, ( #140 ) );
#68 = AXIS2_PLACEMENT_3D( '', #141, #142, #143 );
#71 = LENGTH_MEASURE_WITH_UNIT( LENGTH_MEASURE( 1.00000000000000 ), #144 );
#74 = DIMENSIONAL_EXPONENTS( 1.00000000000000, 0.000000000000000, 0.000000000000000, 0.000000000000000, 0.000000000000000, 0.000000000000000, 0.000000000000000 );
#76 = DIMENSIONAL_EXPONENTS( 0.000000000000000, 0.000000000000000, 0.000000000000000, 0.000000000000000, 0.000000000000000, 0.000000000000000, 0.000000000000000 );
#82 = SURFACE_STYLE_USAGE( .BOTH., #145 );
#83 = FACE_OUTER_BOUND( '', #146, .T. );
#84 = FACE_OUTER_BOUND( '', #147, .T. );
#85 = SPHERICAL_SURFACE( '', #148, 30.0000000000000 );
#86 = SURFACE_STYLE_USAGE( .BOTH., #149 );
#87 = FACE_OUTER_BOUND( '', #150, .T. );
#88 = FACE_BOUND( '', #151, .T. );
#89 = CONICAL_SURFACE( '', #152, 5.05300000000000, 1.04719755119660 );
#90 = SURFACE_STYLE_USAGE( .BOTH., #153 );
#91 = FACE_OUTER_BOUND( '', #154, .T. );
#92 = FACE_OUTER_BOUND( '', #155, .T. );
#93 = CYLINDRICAL_SURFACE( '', #156, 5.05300000000000 );
#94 = SURFACE_STYLE_USAGE( .BOTH., #157 );
#95 = FACE_BOUND( '', #158, .T. );
#96 = FACE_OUTER_BOUND( '', #159, .T. );
#97 = PLANE( '', #160 );
#98 = SURFACE_STYLE_USAGE( .BOTH., #161 );
#99 = FACE_BOUND( '', #162, .T. );
#100 = FACE_OUTER_BOUND( '', #163, .T. );
#101 = CONICAL_SURFACE( '', #164, 6.05300000000000, 0.785398163397448 );
#102 = SURFACE_STYLE_USAGE( .BOTH., #165 );
#103 = FACE_OUTER_BOUND( '', #166, .T. );
#104 = FACE_OUTER_BOUND( '', #167, .T. );
#105 = CYLINDRICAL_SURFACE( '', #168, 8.00000000000000 );
#106 = SURFACE_STYLE_USAGE( .BOTH., #169 );
#107 = FACE_OUTER_BOUND( '', #170, .T. );
#108 = FACE_OUTER_BOUND( '', #171, .T. );
#109 = CYLINDRICAL_SURFACE( '', #172, 5.05300000000000 );
#110 = SURFACE_STYLE_USAGE( .BOTH., #173 );
#111 = FACE_OUTER_BOUND( '', #174, .T. );
#112 = FACE_OUTER_BOUND( '', #175, .T. );
#113 = TOROIDAL_SURFACE( '', #176, 30.2500000000000, 1.25000000000000 );
#114 = SURFACE_STYLE_USAGE( .BOTH., #177 );
#115 = FACE_OUTER_BOUND( '', #178, .T. );
#116 = FACE_OUTER_BOUND( '', #179, .T. );
#117 = CYLINDRICAL_SURFACE( '', #180, 8.00000000000000 );
#118 = SURFACE_STYLE_USAGE( .BOTH., #181 );
#119 = FACE_OUTER_BOUND( '', #182, .T. );
#120 = FACE_OUTER_BOUND( '', #183, .T. );
#121 = CYLINDRICAL_SURFACE( '', #184, 7.50000000000000 );
#122 = SURFACE_STYLE_USAGE( .BOTH., #185 );
#123 = FACE_OUTER_BOUND( '', #186, .T. );
#124 = FACE_BOUND( '', #187, .T. );
#125 = PLANE( '', #188 );
#126 = SURFACE_STYLE_USAGE( .BOTH., #189 );
#127 = FACE_OUTER_BOUND( '', #190, .T. );
#128 = FACE_BOUND( '', #191, .T. );
#129 = PLANE( '', #192 );
#130 = SURFACE_STYLE_USAGE( .BOTH., #193 );
#131 = FACE_OUTER_BOUND( '', #194, .T. );
#132 = SPHERICAL_SURFACE( '', #195, 30.0000000000000 );
#133 = SURFACE_STYLE_USAGE( .BOTH., #196 );
#134 = FACE_BOUND( '', #197, .T. );
#135 = FACE_OUTER_BOUND( '', #198, .T. );
#136 = PLANE( '', #199 );
#137 = PRODUCT_CONTEXT( '', #24, 'mechanical' );
#138 = PRODUCT_DEFINITION_FORMATION_WITH_SPECIFIED_SOURCE( ' ', 'NONE', #65, .NOT_KNOWN. );
#139 = CLOSED_SHELL( '', ( #48, #62, #40, #46, #42, #44, #50, #60, #38, #52 ) );
#140 = ORIENTED_CLOSED_SHELL( '', *, #200, .T. );
#141 = CARTESIAN_POINT( '', ( 0.000000000000000, 0.000000000000000, 0.000000000000000 ) );
#142 = DIRECTION( '', ( 0.000000000000000, 0.000000000000000, 1.00000000000000 ) );
#143 = DIRECTION( '', ( 1.00000000000000, 0.000000000000000, 0.000000000000000 ) );
#144 =  ( LENGTH_UNIT(  )NAMED_UNIT( #74 )SI_UNIT( .MILLI., .METRE. ) );
#145 = SURFACE_SIDE_STYLE( '', ( #202 ) );
#146 = EDGE_LOOP( '', ( #203 ) );
#147 = EDGE_LOOP( '', ( #204 ) );
#148 = AXIS2_PLACEMENT_3D( '', #205, #206, #207 );
#149 = SURFACE_SIDE_STYLE( '', ( #208 ) );
#150 = EDGE_LOOP( '', ( #209 ) );
#151 = VERTEX_LOOP( '', #210 );
#152 = AXIS2_PLACEMENT_3D( '', #211, #212, #213 );
#153 = SURFACE_SIDE_STYLE( '', ( #214 ) );
#154 = EDGE_LOOP( '', ( #215 ) );
#155 = EDGE_LOOP( '', ( #216 ) );
#156 = AXIS2_PLACEMENT_3D( '', #217, #218, #219 );
#157 = SURFACE_SIDE_STYLE( '', ( #220 ) );
#158 = EDGE_LOOP( '', ( #221 ) );
#159 = EDGE_LOOP( '', ( #222 ) );
#160 = AXIS2_PLACEMENT_3D( '', #223, #224, #225 );
#161 = SURFACE_SIDE_STYLE( '', ( #226 ) );
#162 = EDGE_LOOP( '', ( #227 ) );
#163 = EDGE_LOOP( '', ( #228 ) );
#164 = AXIS2_PLACEMENT_3D( '', #229, #230, #231 );
#165 = SURFACE_SIDE_STYLE( '', ( #232 ) );
#166 = EDGE_LOOP( '', ( #233 ) );
#167 = EDGE_LOOP( '', ( #234 ) );
#168 = AXIS2_PLACEMENT_3D( '', #235, #236, #237 );
#169 = SURFACE_SIDE_STYLE( '', ( #238 ) );
#170 = EDGE_LOOP( '', ( #239 ) );
#171 = EDGE_LOOP( '', ( #240 ) );
#172 = AXIS2_PLACEMENT_3D( '', #241, #242, #243 );
#173 = SURFACE_SIDE_STYLE( '', ( #244 ) );
#174 = EDGE_LOOP( '', ( #245 ) );
#175 = EDGE_LOOP( '', ( #246 ) );
#176 = AXIS2_PLACEMENT_3D( '', #247, #248, #249 );
#177 = SURFACE_SIDE_STYLE( '', ( #250 ) );
#178 = EDGE_LOOP( '', ( #251 ) );
#179 = EDGE_LOOP( '', ( #252 ) );
#180 = AXIS2_PLACEMENT_3D( '', #253, #254, #255 );
#181 = SURFACE_SIDE_STYLE( '', ( #256 ) );
#182 = EDGE_LOOP( '', ( #257 ) );
#183 = EDGE_LOOP( '', ( #258 ) );
#184 = AXIS2_PLACEMENT_3D( '', #259, #260, #261 );
#185 = SURFACE_SIDE_STYLE( '', ( #262 ) );
#186 = EDGE_LOOP( '', ( #263 ) );
#187 = EDGE_LOOP( '', ( #264 ) );
#188 = AXIS2_PLACEMENT_3D( '', #265, #266, #267 );
#189 = SURFACE_SIDE_STYLE( '', ( #268 ) );
#190 = EDGE_LOOP( '', ( #269 ) );
#191 = EDGE_LOOP( '', ( #270 ) );
#192 = AXIS2_PLACEMENT_3D( '', #271, #272, #273 );
#193 = SURFACE_SIDE_STYLE( '', ( #274 ) );
#194 = EDGE_LOOP( '', ( #275 ) );
#195 = AXIS2_PLACEMENT_3D( '', #276, #277, #278 );
#196 = SURFACE_SIDE_STYLE( '', ( #279 ) );
#197 = EDGE_LOOP( '', ( #280 ) );
#198 = EDGE_LOOP( '', ( #281 ) );
#199 = AXIS2_PLACEMENT_3D( '', #282, #283, #284 );
#200 = CLOSED_SHELL( '', ( #54, #56, #64, #58 ) );
#202 = SURFACE_STYLE_FILL_AREA( #285 );
#203 = ORIENTED_EDGE( '', *, *, #286, .F. );
#204 = ORIENTED_EDGE( '', *, *, #287, .F. );
#205 = CARTESIAN_POINT( '', ( 0.000000000000000, 0.000000000000000, 28.0000000000000 ) );
#206 = DIRECTION( '', ( 0.000000000000000, 0.000000000000000, 1.00000000000000 ) );
#207 = DIRECTION( '', ( 1.00000000000000, 0.000000000000000, 0.000000000000000 ) );
#208 = SURFACE_STYLE_FILL_AREA( #288 );
#209 = ORIENTED_EDGE( '', *, *, #289, .F. );
#210 = VERTEX_POINT( '', #290 );
#211 = CARTESIAN_POINT( '', ( 3.50210312138888E-015, -5.55111512312594E-018, 20.1326490897848 ) );
#212 = DIRECTION( '', ( 0.000000000000000, -0.000000000000000, -1.00000000000000 ) );
#213 = DIRECTION( '', ( 0.000000000000000, -1.00000000000000, 0.000000000000000 ) );
#214 = SURFACE_STYLE_FILL_AREA( #291 );
#215 = ORIENTED_EDGE( '', *, *, #292, .T. );
#216 = ORIENTED_EDGE( '', *, *, #293, .F. );
#217 = CARTESIAN_POINT( '', ( 3.50210312138888E-015, -5.55111512312594E-018, 0.0500000000000014 ) );
#218 = DIRECTION( '', ( -0.000000000000000, 0.000000000000000, -1.00000000000000 ) );
#219 = DIRECTION( '', ( 0.000000000000000, 1.00000000000000, 0.000000000000000 ) );
#220 = SURFACE_STYLE_FILL_AREA( #294 );
#221 = ORIENTED_EDGE( '', *, *, #295, .T. );
#222 = ORIENTED_EDGE( '', *, *, #296, .F. );
#223 = CARTESIAN_POINT( '', ( 4.76414299968630E-015, -5.55111512312594E-018, 0.0500000000000000 ) );
#224 = DIRECTION( '', ( 0.000000000000000, 0.000000000000000, 1.00000000000000 ) );
#225 = DIRECTION( '', ( 1.00000000000000, 0.000000000000000, 0.000000000000000 ) );
#226 = SURFACE_STYLE_FILL_AREA( #297 );
#227 = ORIENTED_EDGE( '', *, *, #292, .F. );
#228 = ORIENTED_EDGE( '', *, *, #295, .F. );
#229 = CARTESIAN_POINT( '', ( 3.50210312138888E-015, -5.55111512312594E-018, 0.0500000000000000 ) );
#230 = DIRECTION( '', ( -0.000000000000000, 0.000000000000000, -1.00000000000000 ) );
#231 = DIRECTION( '', ( -1.00000000000000, 0.000000000000000, 0.000000000000000 ) );
#232 = SURFACE_STYLE_FILL_AREA( #298 );
#233 = ORIENTED_EDGE( '', *, *, #299, .F. );
#234 = ORIENTED_EDGE( '', *, *, #296, .T. );
#235 = CARTESIAN_POINT( '', ( 0.000000000000000, 0.000000000000000, 57.1500000000000 ) );
#236 = DIRECTION( '', ( -0.000000000000000, -0.000000000000000, -1.00000000000000 ) );
#237 = DIRECTION( '', ( 1.00000000000000, 0.000000000000000, 0.000000000000000 ) );
#238 = SURFACE_STYLE_FILL_AREA( #300 );
#239 = ORIENTED_EDGE( '', *, *, #289, .T. );
#240 = ORIENTED_EDGE( '', *, *, #293, .T. );
#241 = CARTESIAN_POINT( '', ( 3.50210312138888E-015, -5.55111512312594E-018, 0.0500000000000014 ) );
#242 = DIRECTION( '', ( -0.000000000000000, 0.000000000000000, -1.00000000000000 ) );
#243 = DIRECTION( '', ( 0.000000000000000, 1.00000000000000, 0.000000000000000 ) );
#244 = SURFACE_STYLE_FILL_AREA( #301 );
#245 = ORIENTED_EDGE( '', *, *, #287, .T. );
#246 = ORIENTED_EDGE( '', *, *, #302, .T. );
#247 = CARTESIAN_POINT( '', ( 0.000000000000000, 0.000000000000000, 29.0000000000000 ) );
#248 = DIRECTION( '', ( 0.000000000000000, 0.000000000000000, 1.00000000000000 ) );
#249 = DIRECTION( '', ( 1.00000000000000, 0.000000000000000, 0.000000000000000 ) );
#250 = SURFACE_STYLE_FILL_AREA( #303 );
#251 = ORIENTED_EDGE( '', *, *, #304, .T. );
#252 = ORIENTED_EDGE( '', *, *, #305, .T. );
#253 = CARTESIAN_POINT( '', ( 0.000000000000000, 0.000000000000000, 57.1500000000000 ) );
#254 = DIRECTION( '', ( -0.000000000000000, -0.000000000000000, -1.00000000000000 ) );
#255 = DIRECTION( '', ( 1.00000000000000, 0.000000000000000, 0.000000000000000 ) );
#256 = SURFACE_STYLE_FILL_AREA( #306 );
#257 = ORIENTED_EDGE( '', *, *, #307, .F. );
#258 = ORIENTED_EDGE( '', *, *, #308, .T. );
#259 = CARTESIAN_POINT( '', ( 5.55111512312594E-018, -5.55111512312594E-018, 57.2000000000000 ) );
#260 = DIRECTION( '', ( -0.000000000000000, -0.000000000000000, -1.00000000000000 ) );
#261 = DIRECTION( '', ( 1.00000000000000, 0.000000000000000, 0.000000000000000 ) );
#262 = SURFACE_STYLE_FILL_AREA( #309 );
#263 = ORIENTED_EDGE( '', *, *, #305, .F. );
#264 = ORIENTED_EDGE( '', *, *, #308, .F. );
#265 = CARTESIAN_POINT( '', ( 9.24000000000000, -5.55111512312594E-018, 11.1945284186775 ) );
#266 = DIRECTION( '', ( 0.000000000000000, 0.000000000000000, -1.00000000000000 ) );
#267 = DIRECTION( '', ( -1.00000000000000, 0.000000000000000, 0.000000000000000 ) );
#268 = SURFACE_STYLE_FILL_AREA( #310 );
#269 = ORIENTED_EDGE( '', *, *, #286, .T. );
#270 = ORIENTED_EDGE( '', *, *, #299, .T. );
#271 = CARTESIAN_POINT( '', ( 11.0000000000000, 0.000000000000000, -3.38813178901721E-017 ) );
#272 = DIRECTION( '', ( 0.000000000000000, 0.000000000000000, -1.00000000000000 ) );
#273 = DIRECTION( '', ( -1.00000000000000, 0.000000000000000, 0.000000000000000 ) );
#274 = SURFACE_STYLE_FILL_AREA( #311 );
#275 = ORIENTED_EDGE( '', *, *, #302, .F. );
#276 = CARTESIAN_POINT( '', ( 0.000000000000000, 0.000000000000000, 28.0000000000000 ) );
#277 = DIRECTION( '', ( 0.000000000000000, 0.000000000000000, 1.00000000000000 ) );
#278 = DIRECTION( '', ( 1.00000000000000, 0.000000000000000, 0.000000000000000 ) );
#279 = SURFACE_STYLE_FILL_AREA( #312 );
#280 = ORIENTED_EDGE( '', *, *, #307, .T. );
#281 = ORIENTED_EDGE( '', *, *, #304, .F. );
#282 = CARTESIAN_POINT( '', ( 8.00000000000000, 0.000000000000000, 15.0500000000000 ) );
#283 = DIRECTION( '', ( 0.000000000000000, 0.000000000000000, -1.00000000000000 ) );
#284 = DIRECTION( '', ( -1.00000000000000, 0.000000000000000, 0.000000000000000 ) );
#285 = FILL_AREA_STYLE( '', ( #313 ) );
#286 = EDGE_CURVE( '', #314, #314, #315, .T. );
#287 = EDGE_CURVE( '', #316, #316, #317, .F. );
#288 = FILL_AREA_STYLE( '', ( #318 ) );
#289 = EDGE_CURVE( '', #319, #319, #320, .T. );
#290 = CARTESIAN_POINT( '', ( 3.50210312138888E-015, -5.55111512312594E-018, 23.0500000000000 ) );
#291 = FILL_AREA_STYLE( '', ( #321 ) );
#292 = EDGE_CURVE( '', #322, #322, #323, .F. );
#293 = EDGE_CURVE( '', #324, #324, #325, .T. );
#294 = FILL_AREA_STYLE( '', ( #326 ) );
#295 = EDGE_CURVE( '', #327, #327, #328, .T. );
#296 = EDGE_CURVE( '', #329, #329, #330, .T. );
#297 = FILL_AREA_STYLE( '', ( #331 ) );
#298 = FILL_AREA_STYLE( '', ( #332 ) );
#299 = EDGE_CURVE( '', #333, #333, #334, .T. );
#300 = FILL_AREA_STYLE( '', ( #335 ) );
#301 = FILL_AREA_STYLE( '', ( #336 ) );
#302 = EDGE_CURVE( '', #337, #337, #338, .F. );
#303 = FILL_AREA_STYLE( '', ( #339 ) );
#304 = EDGE_CURVE( '', #340, #340, #341, .T. );
#305 = EDGE_CURVE( '', #342, #342, #343, .T. );
#306 = FILL_AREA_STYLE( '', ( #344 ) );
#307 = EDGE_CURVE( '', #345, #345, #346, .F. );
#308 = EDGE_CURVE( '', #347, #347, #348, .T. );
#309 = FILL_AREA_STYLE( '', ( #349 ) );
#310 = FILL_AREA_STYLE( '', ( #350 ) );
#311 = FILL_AREA_STYLE( '', ( #351 ) );
#312 = FILL_AREA_STYLE( '', ( #352 ) );
#313 = FILL_AREA_STYLE_COLOUR( '', #353 );
#314 = VERTEX_POINT( '', #354 );
#315 = CIRCLE( '', #355, 10.7703296142690 );
#316 = VERTEX_POINT( '', #356 );
#317 = CIRCLE( '', #357, 29.9991594377472 );
#318 = FILL_AREA_STYLE_COLOUR( '', #358 );
#319 = VERTEX_POINT( '', #359 );
#320 = CIRCLE( '', #360, 5.05300000000000 );
#321 = FILL_AREA_STYLE_COLOUR( '', #361 );
#322 = VERTEX_POINT( '', #362 );
#323 = CIRCLE( '', #363, 5.05300000000000 );
#324 = VERTEX_POINT( '', #364 );
#325 = CIRCLE( '', #365, 5.05300000000000 );
#326 = FILL_AREA_STYLE_COLOUR( '', #366 );
#327 = VERTEX_POINT( '', #367 );
#328 = CIRCLE( '', #368, 6.05300000000000 );
#329 = VERTEX_POINT( '', #369 );
#330 = CIRCLE( '', #370, 8.00000000000000 );
#331 = FILL_AREA_STYLE_COLOUR( '', #371 );
#332 = FILL_AREA_STYLE_COLOUR( '', #372 );
#333 = VERTEX_POINT( '', #373 );
#334 = CIRCLE( '', #374, 8.00000000000000 );
#335 = FILL_AREA_STYLE_COLOUR( '', #375 );
#336 = FILL_AREA_STYLE_COLOUR( '', #376 );
#337 = VERTEX_POINT( '', #377 );
#338 = CIRCLE( '', #378, 29.9188319656778 );
#339 = FILL_AREA_STYLE_COLOUR( '', #379 );
#340 = VERTEX_POINT( '', #380 );
#341 = CIRCLE( '', #381, 8.00000000000000 );
#342 = VERTEX_POINT( '', #382 );
#343 = CIRCLE( '', #383, 8.00000000000000 );
#344 = FILL_AREA_STYLE_COLOUR( '', #384 );
#345 = VERTEX_POINT( '', #385 );
#346 = CIRCLE( '', #386, 7.50000000000000 );
#347 = VERTEX_POINT( '', #387 );
#348 = CIRCLE( '', #388, 7.50000000000000 );
#349 = FILL_AREA_STYLE_COLOUR( '', #389 );
#350 = FILL_AREA_STYLE_COLOUR( '', #390 );
#351 = FILL_AREA_STYLE_COLOUR( '', #391 );
#352 = FILL_AREA_STYLE_COLOUR( '', #392 );
#353 = COLOUR_RGB( '', 0.200000002980232, 0.200000002980232, 0.200000002980232 );
#354 = CARTESIAN_POINT( '', ( -10.7703296142690, 0.000000000000000, 0.000000000000000 ) );
#355 = AXIS2_PLACEMENT_3D( '', #393, #394, #395 );
#356 = CARTESIAN_POINT( '', ( -29.9991594377472, 0.000000000000000, 27.7754270081462 ) );
#357 = AXIS2_PLACEMENT_3D( '', #396, #397, #398 );
#358 = COLOUR_RGB( '', 0.666666686534882, 0.400000005960464, 0.133333340287209 );
#359 = CARTESIAN_POINT( '', ( 3.50210312138888E-015, -5.05300000000000, 20.1326490897848 ) );
#360 = AXIS2_PLACEMENT_3D( '', #399, #400, #401 );
#361 = COLOUR_RGB( '', 0.752941191196442, 0.752941191196442, 0.752941191196442 );
#362 = CARTESIAN_POINT( '', ( 5.05300000000000, -5.55111512312594E-018, 1.05000000000000 ) );
#363 = AXIS2_PLACEMENT_3D( '', #402, #403, #404 );
#364 = CARTESIAN_POINT( '', ( 3.50210312138888E-015, 5.05300000000000, 20.0500000000000 ) );
#365 = AXIS2_PLACEMENT_3D( '', #405, #406, #407 );
#366 = COLOUR_RGB( '', 0.666666686534882, 0.400000005960464, 0.133333340287209 );
#367 = CARTESIAN_POINT( '', ( 6.05300000000000, -5.55111512312594E-018, 0.0500000000000000 ) );
#368 = AXIS2_PLACEMENT_3D( '', #408, #409, #410 );
#369 = CARTESIAN_POINT( '', ( 8.00000000000000, -5.55111512312594E-018, 0.0500000000000000 ) );
#370 = AXIS2_PLACEMENT_3D( '', #411, #412, #413 );
#371 = COLOUR_RGB( '', 0.666666686534882, 0.400000005960464, 0.133333340287209 );
#372 = COLOUR_RGB( '', 0.200000002980232, 0.200000002980232, 0.200000002980232 );
#373 = CARTESIAN_POINT( '', ( 8.00000000000000, 0.000000000000000, 0.000000000000000 ) );
#374 = AXIS2_PLACEMENT_3D( '', #414, #415, #416 );
#375 = COLOUR_RGB( '', 0.666666686534882, 0.400000005960464, 0.133333340287209 );
#376 = COLOUR_RGB( '', 0.200000002980232, 0.200000002980232, 0.200000002980232 );
#377 = CARTESIAN_POINT( '', ( 29.9188319656778, 0.000000000000000, 30.2053330382479 ) );
#378 = AXIS2_PLACEMENT_3D( '', #417, #418, #419 );
#379 = COLOUR_RGB( '', 0.200000002980232, 0.200000002980232, 0.200000002980232 );
#380 = CARTESIAN_POINT( '', ( 8.00000000000000, 0.000000000000000, 15.0500000000000 ) );
#381 = AXIS2_PLACEMENT_3D( '', #420, #421, #422 );
#382 = CARTESIAN_POINT( '', ( -8.00000000000000, 0.000000000000000, 11.1945284186775 ) );
#383 = AXIS2_PLACEMENT_3D( '', #423, #424, #425 );
#384 = COLOUR_RGB( '', 0.666666686534882, 0.400000005960464, 0.133333340287209 );
#385 = CARTESIAN_POINT( '', ( -7.50000000000000, -5.55111512312594E-018, 15.0500000000000 ) );
#386 = AXIS2_PLACEMENT_3D( '', #426, #427, #428 );
#387 = CARTESIAN_POINT( '', ( 7.50000000000000, -5.55111512312594E-018, 11.1945284186775 ) );
#388 = AXIS2_PLACEMENT_3D( '', #429, #430, #431 );
#389 = COLOUR_RGB( '', 0.666666686534882, 0.400000005960464, 0.133333340287209 );
#390 = COLOUR_RGB( '', 0.200000002980232, 0.200000002980232, 0.200000002980232 );
#391 = COLOUR_RGB( '', 0.200000002980232, 0.200000002980232, 0.200000002980232 );
#392 = COLOUR_RGB( '', 0.200000002980232, 0.200000002980232, 0.200000002980232 );
#393 = CARTESIAN_POINT( '', ( 0.000000000000000, 0.000000000000000, 0.000000000000000 ) );
#394 = DIRECTION( '', ( 0.000000000000000, 0.000000000000000, -1.00000000000000 ) );
#395 = DIRECTION( '', ( -1.00000000000000, 0.000000000000000, 0.000000000000000 ) );
#396 = CARTESIAN_POINT( '', ( 0.000000000000000, 0.000000000000000, 27.7754270081462 ) );
#397 = DIRECTION( '', ( 0.000000000000000, 0.000000000000000, -1.00000000000000 ) );
#398 = DIRECTION( '', ( -1.00000000000000, 0.000000000000000, 0.000000000000000 ) );
#399 = CARTESIAN_POINT( '', ( 3.50210312138888E-015, -5.55111512312594E-018, 20.1326490897848 ) );
#400 = DIRECTION( '', ( 0.000000000000000, 0.000000000000000, 1.00000000000000 ) );
#401 = DIRECTION( '', ( 0.000000000000000, -1.00000000000000, 0.000000000000000 ) );
#402 = CARTESIAN_POINT( '', ( 3.50210312138888E-015, -5.55111512312594E-018, 1.05000000000000 ) );
#403 = DIRECTION( '', ( 0.000000000000000, 0.000000000000000, 1.00000000000000 ) );
#404 = DIRECTION( '', ( 1.00000000000000, 0.000000000000000, 0.000000000000000 ) );
#405 = CARTESIAN_POINT( '', ( 3.50210312138888E-015, -5.55111512312594E-018, 20.0500000000000 ) );
#406 = DIRECTION( '', ( 0.000000000000000, 0.000000000000000, -1.00000000000000 ) );
#407 = DIRECTION( '', ( 0.000000000000000, 1.00000000000000, 0.000000000000000 ) );
#408 = CARTESIAN_POINT( '', ( 3.50210312138888E-015, -5.55111512312594E-018, 0.0500000000000000 ) );
#409 = DIRECTION( '', ( 0.000000000000000, 0.000000000000000, 1.00000000000000 ) );
#410 = DIRECTION( '', ( 1.00000000000000, 0.000000000000000, 0.000000000000000 ) );
#411 = CARTESIAN_POINT( '', ( 5.55111512312594E-018, -5.55111512312594E-018, 0.0500000000000000 ) );
#412 = DIRECTION( '', ( 0.000000000000000, 0.000000000000000, 1.00000000000000 ) );
#413 = DIRECTION( '', ( 1.00000000000000, 0.000000000000000, 0.000000000000000 ) );
#414 = CARTESIAN_POINT( '', ( 0.000000000000000, 0.000000000000000, 0.000000000000000 ) );
#415 = DIRECTION( '', ( 0.000000000000000, 0.000000000000000, 1.00000000000000 ) );
#416 = DIRECTION( '', ( 1.00000000000000, 0.000000000000000, 0.000000000000000 ) );
#417 = CARTESIAN_POINT( '', ( 0.000000000000000, 0.000000000000000, 30.2053330382479 ) );
#418 = DIRECTION( '', ( 0.000000000000000, 0.000000000000000, 1.00000000000000 ) );
#419 = DIRECTION( '', ( 1.00000000000000, 0.000000000000000, 0.000000000000000 ) );
#420 = CARTESIAN_POINT( '', ( 0.000000000000000, 0.000000000000000, 15.0500000000000 ) );
#421 = DIRECTION( '', ( 0.000000000000000, 0.000000000000000, 1.00000000000000 ) );
#422 = DIRECTION( '', ( 1.00000000000000, 0.000000000000000, 0.000000000000000 ) );
#423 = CARTESIAN_POINT( '', ( 0.000000000000000, 0.000000000000000, 11.1945284186775 ) );
#424 = DIRECTION( '', ( 0.000000000000000, 0.000000000000000, -1.00000000000000 ) );
#425 = DIRECTION( '', ( -1.00000000000000, 0.000000000000000, 0.000000000000000 ) );
#426 = CARTESIAN_POINT( '', ( 5.55111512312594E-018, -5.55111512312594E-018, 15.0500000000000 ) );
#427 = DIRECTION( '', ( 0.000000000000000, 0.000000000000000, -1.00000000000000 ) );
#428 = DIRECTION( '', ( -1.00000000000000, 0.000000000000000, 0.000000000000000 ) );
#429 = CARTESIAN_POINT( '', ( 5.55111512312594E-018, -5.55111512312594E-018, 11.1945284186775 ) );
#430 = DIRECTION( '', ( 0.000000000000000, 0.000000000000000, 1.00000000000000 ) );
#431 = DIRECTION( '', ( 1.00000000000000, 0.000000000000000, 0.000000000000000 ) );
ENDSEC;
END-ISO-10303-21;
