ISO-10303-21;
HEADER;
FILE_DESCRIPTION( ( 'Unknown' ), '1' );
FILE_NAME( '//SBS2003/HD_Usb/Disegni/10_GAMM_CD/2- Gamm_STEP/03 - MANOPOLE/03_19.1-PBO/6132070_PBO60_M14.stp', 'Unknown', ( 'Unknown' ), ( 'Unknown' ), 'PSStep 11.0', 'Unknown', '  ' );
FILE_SCHEMA( ( 'AUTOMOTIVE_DESIGN { 1 0 10303 214 1 1 1 1 }' ) );
ENDSEC;
DATA;
#1 = MECHANICAL_DESIGN_GEOMETRIC_PRESENTATION_REPRESENTATION( ' ', ( #10, #11, #12, #13, #14, #15, #16, #17, #18, #19, #20, #21, #22 ), #6 );
#2 = PRODUCT_DEFINITION_CONTEXT( '', #23, 'design' );
#3 = APPLICATION_PROTOCOL_DEFINITION( 'INTERNATIONAL STANDARD', 'automotive_design', 2001, #23 );
#4 = PRODUCT_CATEGORY_RELATIONSHIP( 'NONE', 'NONE', #24, #25 );
#5 = SHAPE_DEFINITION_REPRESENTATION( #26, #27 );
#6 =  ( GEOMETRIC_REPRESENTATION_CONTEXT( 3 )GLOBAL_UNCERTAINTY_ASSIGNED_CONTEXT( ( #30 ) )GLOBAL_UNIT_ASSIGNED_CONTEXT( ( #32, #33, #34 ) )REPRESENTATION_CONTEXT( 'NONE', 'WORKSPACE' ) );
#10 = STYLED_ITEM( '', ( #36 ), #37 );
#11 = STYLED_ITEM( '', ( #38 ), #39 );
#12 = STYLED_ITEM( '', ( #40 ), #41 );
#13 = STYLED_ITEM( '', ( #42 ), #43 );
#14 = STYLED_ITEM( '', ( #44 ), #45 );
#15 = STYLED_ITEM( '', ( #46 ), #47 );
#16 = STYLED_ITEM( '', ( #48 ), #49 );
#17 = STYLED_ITEM( '', ( #50 ), #51 );
#18 = STYLED_ITEM( '', ( #52 ), #53 );
#19 = STYLED_ITEM( '', ( #54 ), #55 );
#20 = STYLED_ITEM( '', ( #56 ), #57 );
#21 = STYLED_ITEM( '', ( #58 ), #59 );
#22 = STYLED_ITEM( '', ( #60 ), #61 );
#23 = APPLICATION_CONTEXT( 'core data for automotive mechanical design processes' );
#24 = PRODUCT_CATEGORY( 'part', 'NONE' );
#25 = PRODUCT_RELATED_PRODUCT_CATEGORY( 'detail', ' ', ( #62 ) );
#26 = PRODUCT_DEFINITION_SHAPE( 'NONE', 'NONE', #63 );
#27 = ADVANCED_BREP_SHAPE_REPRESENTATION( '6132070', ( #64, #65 ), #6 );
#30 = UNCERTAINTY_MEASURE_WITH_UNIT( LENGTH_MEASURE( 0.00100000000000000 ), #32, '', '' );
#32 =  ( CONVERSION_BASED_UNIT( 'MILLIMETRE', #68 )LENGTH_UNIT(  )NAMED_UNIT( #71 ) );
#33 =  ( NAMED_UNIT( #73 )PLANE_ANGLE_UNIT(  )SI_UNIT( $, .RADIAN. ) );
#34 =  ( NAMED_UNIT( #73 )SI_UNIT( $, .STERADIAN. )SOLID_ANGLE_UNIT(  ) );
#36 = PRESENTATION_STYLE_ASSIGNMENT( ( #79 ) );
#37 = ADVANCED_FACE( '', ( #80, #81 ), #82, .T. );
#38 = PRESENTATION_STYLE_ASSIGNMENT( ( #83 ) );
#39 = ADVANCED_FACE( '', ( #84, #85 ), #86, .F. );
#40 = PRESENTATION_STYLE_ASSIGNMENT( ( #87 ) );
#41 = ADVANCED_FACE( '', ( #88, #89 ), #90, .T. );
#42 = PRESENTATION_STYLE_ASSIGNMENT( ( #91 ) );
#43 = ADVANCED_FACE( '', ( #92, #93 ), #94, .F. );
#44 = PRESENTATION_STYLE_ASSIGNMENT( ( #95 ) );
#45 = ADVANCED_FACE( '', ( #96, #97 ), #98, .F. );
#46 = PRESENTATION_STYLE_ASSIGNMENT( ( #99 ) );
#47 = ADVANCED_FACE( '', ( #100, #101 ), #102, .F. );
#48 = PRESENTATION_STYLE_ASSIGNMENT( ( #103 ) );
#49 = ADVANCED_FACE( '', ( #104, #105 ), #106, .F. );
#50 = PRESENTATION_STYLE_ASSIGNMENT( ( #107 ) );
#51 = ADVANCED_FACE( '', ( #108, #109 ), #110, .T. );
#52 = PRESENTATION_STYLE_ASSIGNMENT( ( #111 ) );
#53 = ADVANCED_FACE( '', ( #112, #113 ), #114, .F. );
#54 = PRESENTATION_STYLE_ASSIGNMENT( ( #115 ) );
#55 = ADVANCED_FACE( '', ( #116 ), #117, .T. );
#56 = PRESENTATION_STYLE_ASSIGNMENT( ( #118 ) );
#57 = ADVANCED_FACE( '', ( #119, #120 ), #121, .F. );
#58 = PRESENTATION_STYLE_ASSIGNMENT( ( #122 ) );
#59 = ADVANCED_FACE( '', ( #123, #124 ), #125, .F. );
#60 = PRESENTATION_STYLE_ASSIGNMENT( ( #126 ) );
#61 = ADVANCED_FACE( '', ( #127, #128 ), #129, .F. );
#62 = PRODUCT( '6132070', '6132070', 'PART-6132070-DESC', ( #130 ) );
#63 = PRODUCT_DEFINITION( 'NONE', 'NONE', #131, #2 );
#64 = BREP_WITH_VOIDS( '6132070', #132, ( #133 ) );
#65 = AXIS2_PLACEMENT_3D( '', #134, #135, #136 );
#68 = LENGTH_MEASURE_WITH_UNIT( LENGTH_MEASURE( 1.00000000000000 ), #137 );
#71 = DIMENSIONAL_EXPONENTS( 1.00000000000000, 0.000000000000000, 0.000000000000000, 0.000000000000000, 0.000000000000000, 0.000000000000000, 0.000000000000000 );
#73 = DIMENSIONAL_EXPONENTS( 0.000000000000000, 0.000000000000000, 0.000000000000000, 0.000000000000000, 0.000000000000000, 0.000000000000000, 0.000000000000000 );
#79 = SURFACE_STYLE_USAGE( .BOTH., #138 );
#80 = FACE_OUTER_BOUND( '', #139, .T. );
#81 = FACE_OUTER_BOUND( '', #140, .T. );
#82 = SPHERICAL_SURFACE( '', #141, 30.0000000000000 );
#83 = SURFACE_STYLE_USAGE( .BOTH., #142 );
#84 = FACE_BOUND( '', #143, .T. );
#85 = FACE_OUTER_BOUND( '', #144, .T. );
#86 = PLANE( '', #145 );
#87 = SURFACE_STYLE_USAGE( .BOTH., #146 );
#88 = FACE_OUTER_BOUND( '', #147, .T. );
#89 = FACE_BOUND( '', #148, .T. );
#90 = PLANE( '', #149 );
#91 = SURFACE_STYLE_USAGE( .BOTH., #150 );
#92 = FACE_OUTER_BOUND( '', #151, .T. );
#93 = FACE_OUTER_BOUND( '', #152, .T. );
#94 = CYLINDRICAL_SURFACE( '', #153, 9.00000000000000 );
#95 = SURFACE_STYLE_USAGE( .BOTH., #154 );
#96 = FACE_OUTER_BOUND( '', #155, .T. );
#97 = FACE_BOUND( '', #156, .T. );
#98 = CONICAL_SURFACE( '', #157, 5.91750000000000, 1.04719755119660 );
#99 = SURFACE_STYLE_USAGE( .BOTH., #158 );
#100 = FACE_OUTER_BOUND( '', #159, .T. );
#101 = FACE_OUTER_BOUND( '', #160, .T. );
#102 = CYLINDRICAL_SURFACE( '', #161, 9.00000000000000 );
#103 = SURFACE_STYLE_USAGE( .BOTH., #162 );
#104 = FACE_OUTER_BOUND( '', #163, .T. );
#105 = FACE_BOUND( '', #164, .T. );
#106 = PLANE( '', #165 );
#107 = SURFACE_STYLE_USAGE( .BOTH., #166 );
#108 = FACE_OUTER_BOUND( '', #167, .T. );
#109 = FACE_OUTER_BOUND( '', #168, .T. );
#110 = CYLINDRICAL_SURFACE( '', #169, 8.50000000000000 );
#111 = SURFACE_STYLE_USAGE( .BOTH., #170 );
#112 = FACE_BOUND( '', #171, .T. );
#113 = FACE_OUTER_BOUND( '', #172, .T. );
#114 = CONICAL_SURFACE( '', #173, 7.41750000000000, 0.785398163397448 );
#115 = SURFACE_STYLE_USAGE( .BOTH., #174 );
#116 = FACE_OUTER_BOUND( '', #175, .T. );
#117 = SPHERICAL_SURFACE( '', #176, 30.0000000000000 );
#118 = SURFACE_STYLE_USAGE( .BOTH., #177 );
#119 = FACE_OUTER_BOUND( '', #178, .T. );
#120 = FACE_OUTER_BOUND( '', #179, .T. );
#121 = TOROIDAL_SURFACE( '', #180, 30.2500000000000, 1.25000000000000 );
#122 = SURFACE_STYLE_USAGE( .BOTH., #181 );
#123 = FACE_OUTER_BOUND( '', #182, .T. );
#124 = FACE_OUTER_BOUND( '', #183, .T. );
#125 = CYLINDRICAL_SURFACE( '', #184, 5.91750000000000 );
#126 = SURFACE_STYLE_USAGE( .BOTH., #185 );
#127 = FACE_OUTER_BOUND( '', #186, .T. );
#128 = FACE_BOUND( '', #187, .T. );
#129 = PLANE( '', #188 );
#130 = PRODUCT_CONTEXT( '', #23, 'mechanical' );
#131 = PRODUCT_DEFINITION_FORMATION_WITH_SPECIFIED_SOURCE( ' ', 'NONE', #62, .NOT_KNOWN. );
#132 = CLOSED_SHELL( '', ( #55, #45, #59, #43, #53, #41, #57, #37, #39 ) );
#133 = ORIENTED_CLOSED_SHELL( '', *, #189, .T. );
#134 = CARTESIAN_POINT( '', ( 0.000000000000000, 0.000000000000000, 0.000000000000000 ) );
#135 = DIRECTION( '', ( 0.000000000000000, 0.000000000000000, 1.00000000000000 ) );
#136 = DIRECTION( '', ( 1.00000000000000, 0.000000000000000, 0.000000000000000 ) );
#137 =  ( LENGTH_UNIT(  )NAMED_UNIT( #71 )SI_UNIT( .MILLI., .METRE. ) );
#138 = SURFACE_SIDE_STYLE( '', ( #191 ) );
#139 = EDGE_LOOP( '', ( #192 ) );
#140 = EDGE_LOOP( '', ( #193 ) );
#141 = AXIS2_PLACEMENT_3D( '', #194, #195, #196 );
#142 = SURFACE_SIDE_STYLE( '', ( #197 ) );
#143 = EDGE_LOOP( '', ( #198 ) );
#144 = EDGE_LOOP( '', ( #199 ) );
#145 = AXIS2_PLACEMENT_3D( '', #200, #201, #202 );
#146 = SURFACE_SIDE_STYLE( '', ( #203 ) );
#147 = EDGE_LOOP( '', ( #204 ) );
#148 = EDGE_LOOP( '', ( #205 ) );
#149 = AXIS2_PLACEMENT_3D( '', #206, #207, #208 );
#150 = SURFACE_SIDE_STYLE( '', ( #209 ) );
#151 = EDGE_LOOP( '', ( #210 ) );
#152 = EDGE_LOOP( '', ( #211 ) );
#153 = AXIS2_PLACEMENT_3D( '', #212, #213, #214 );
#154 = SURFACE_SIDE_STYLE( '', ( #215 ) );
#155 = EDGE_LOOP( '', ( #216 ) );
#156 = VERTEX_LOOP( '', #217 );
#157 = AXIS2_PLACEMENT_3D( '', #218, #219, #220 );
#158 = SURFACE_SIDE_STYLE( '', ( #221 ) );
#159 = EDGE_LOOP( '', ( #222 ) );
#160 = EDGE_LOOP( '', ( #223 ) );
#161 = AXIS2_PLACEMENT_3D( '', #224, #225, #226 );
#162 = SURFACE_SIDE_STYLE( '', ( #227 ) );
#163 = EDGE_LOOP( '', ( #228 ) );
#164 = EDGE_LOOP( '', ( #229 ) );
#165 = AXIS2_PLACEMENT_3D( '', #230, #231, #232 );
#166 = SURFACE_SIDE_STYLE( '', ( #233 ) );
#167 = EDGE_LOOP( '', ( #234 ) );
#168 = EDGE_LOOP( '', ( #235 ) );
#169 = AXIS2_PLACEMENT_3D( '', #236, #237, #238 );
#170 = SURFACE_SIDE_STYLE( '', ( #239 ) );
#171 = EDGE_LOOP( '', ( #240 ) );
#172 = EDGE_LOOP( '', ( #241 ) );
#173 = AXIS2_PLACEMENT_3D( '', #242, #243, #244 );
#174 = SURFACE_SIDE_STYLE( '', ( #245 ) );
#175 = EDGE_LOOP( '', ( #246 ) );
#176 = AXIS2_PLACEMENT_3D( '', #247, #248, #249 );
#177 = SURFACE_SIDE_STYLE( '', ( #250 ) );
#178 = EDGE_LOOP( '', ( #251 ) );
#179 = EDGE_LOOP( '', ( #252 ) );
#180 = AXIS2_PLACEMENT_3D( '', #253, #254, #255 );
#181 = SURFACE_SIDE_STYLE( '', ( #256 ) );
#182 = EDGE_LOOP( '', ( #257 ) );
#183 = EDGE_LOOP( '', ( #258 ) );
#184 = AXIS2_PLACEMENT_3D( '', #259, #260, #261 );
#185 = SURFACE_SIDE_STYLE( '', ( #262 ) );
#186 = EDGE_LOOP( '', ( #263 ) );
#187 = EDGE_LOOP( '', ( #264 ) );
#188 = AXIS2_PLACEMENT_3D( '', #265, #266, #267 );
#189 = CLOSED_SHELL( '', ( #47, #49, #51, #61 ) );
#191 = SURFACE_STYLE_FILL_AREA( #268 );
#192 = ORIENTED_EDGE( '', *, *, #269, .F. );
#193 = ORIENTED_EDGE( '', *, *, #270, .F. );
#194 = CARTESIAN_POINT( '', ( 0.000000000000000, 0.000000000000000, 28.0000000000000 ) );
#195 = DIRECTION( '', ( 0.000000000000000, 0.000000000000000, 1.00000000000000 ) );
#196 = DIRECTION( '', ( 1.00000000000000, 0.000000000000000, 0.000000000000000 ) );
#197 = SURFACE_STYLE_FILL_AREA( #271 );
#198 = ORIENTED_EDGE( '', *, *, #272, .T. );
#199 = ORIENTED_EDGE( '', *, *, #273, .F. );
#200 = CARTESIAN_POINT( '', ( 3.89400570413633E-015, -2.77555756156297E-018, 0.0500000000000014 ) );
#201 = DIRECTION( '', ( 0.000000000000000, 0.000000000000000, 1.00000000000000 ) );
#202 = DIRECTION( '', ( 1.00000000000000, 0.000000000000000, 0.000000000000000 ) );
#203 = SURFACE_STYLE_FILL_AREA( #274 );
#204 = ORIENTED_EDGE( '', *, *, #269, .T. );
#205 = ORIENTED_EDGE( '', *, *, #275, .T. );
#206 = CARTESIAN_POINT( '', ( 11.0000000000000, 0.000000000000000, -3.38813178901721E-017 ) );
#207 = DIRECTION( '', ( 0.000000000000000, 0.000000000000000, -1.00000000000000 ) );
#208 = DIRECTION( '', ( -1.00000000000000, 0.000000000000000, 0.000000000000000 ) );
#209 = SURFACE_STYLE_FILL_AREA( #276 );
#210 = ORIENTED_EDGE( '', *, *, #275, .F. );
#211 = ORIENTED_EDGE( '', *, *, #273, .T. );
#212 = CARTESIAN_POINT( '', ( 0.000000000000000, 0.000000000000000, 57.1500000000000 ) );
#213 = DIRECTION( '', ( -0.000000000000000, -0.000000000000000, -1.00000000000000 ) );
#214 = DIRECTION( '', ( 1.00000000000000, 0.000000000000000, 0.000000000000000 ) );
#215 = SURFACE_STYLE_FILL_AREA( #277 );
#216 = ORIENTED_EDGE( '', *, *, #278, .F. );
#217 = VERTEX_POINT( '', #279 );
#218 = CARTESIAN_POINT( '', ( 3.49932756382732E-015, -2.77555756156297E-018, 19.6335297820704 ) );
#219 = DIRECTION( '', ( 0.000000000000000, -0.000000000000000, -1.00000000000000 ) );
#220 = DIRECTION( '', ( 0.000000000000000, -1.00000000000000, 0.000000000000000 ) );
#221 = SURFACE_STYLE_FILL_AREA( #280 );
#222 = ORIENTED_EDGE( '', *, *, #281, .T. );
#223 = ORIENTED_EDGE( '', *, *, #282, .T. );
#224 = CARTESIAN_POINT( '', ( 0.000000000000000, 0.000000000000000, 57.1500000000000 ) );
#225 = DIRECTION( '', ( -0.000000000000000, -0.000000000000000, -1.00000000000000 ) );
#226 = DIRECTION( '', ( 1.00000000000000, 0.000000000000000, 0.000000000000000 ) );
#227 = SURFACE_STYLE_FILL_AREA( #283 );
#228 = ORIENTED_EDGE( '', *, *, #282, .F. );
#229 = ORIENTED_EDGE( '', *, *, #284, .F. );
#230 = CARTESIAN_POINT( '', ( 10.3900000000000, -2.77555756156297E-018, 10.4333842508980 ) );
#231 = DIRECTION( '', ( 0.000000000000000, 0.000000000000000, -1.00000000000000 ) );
#232 = DIRECTION( '', ( -1.00000000000000, 0.000000000000000, 0.000000000000000 ) );
#233 = SURFACE_STYLE_FILL_AREA( #285 );
#234 = ORIENTED_EDGE( '', *, *, #286, .F. );
#235 = ORIENTED_EDGE( '', *, *, #284, .T. );
#236 = CARTESIAN_POINT( '', ( 2.77555756156297E-018, -2.77555756156297E-018, 57.2000000000000 ) );
#237 = DIRECTION( '', ( -0.000000000000000, -0.000000000000000, -1.00000000000000 ) );
#238 = DIRECTION( '', ( 1.00000000000000, 0.000000000000000, 0.000000000000000 ) );
#239 = SURFACE_STYLE_FILL_AREA( #287 );
#240 = ORIENTED_EDGE( '', *, *, #288, .F. );
#241 = ORIENTED_EDGE( '', *, *, #272, .F. );
#242 = CARTESIAN_POINT( '', ( 3.49932756382732E-015, -2.77555756156297E-018, 0.0500000000000014 ) );
#243 = DIRECTION( '', ( -0.000000000000000, 0.000000000000000, -1.00000000000000 ) );
#244 = DIRECTION( '', ( -1.00000000000000, 0.000000000000000, 0.000000000000000 ) );
#245 = SURFACE_STYLE_FILL_AREA( #289 );
#246 = ORIENTED_EDGE( '', *, *, #290, .F. );
#247 = CARTESIAN_POINT( '', ( 0.000000000000000, 0.000000000000000, 28.0000000000000 ) );
#248 = DIRECTION( '', ( 0.000000000000000, 0.000000000000000, 1.00000000000000 ) );
#249 = DIRECTION( '', ( 1.00000000000000, 0.000000000000000, 0.000000000000000 ) );
#250 = SURFACE_STYLE_FILL_AREA( #291 );
#251 = ORIENTED_EDGE( '', *, *, #270, .T. );
#252 = ORIENTED_EDGE( '', *, *, #290, .T. );
#253 = CARTESIAN_POINT( '', ( 0.000000000000000, 0.000000000000000, 29.0000000000000 ) );
#254 = DIRECTION( '', ( 0.000000000000000, 0.000000000000000, 1.00000000000000 ) );
#255 = DIRECTION( '', ( 1.00000000000000, 0.000000000000000, 0.000000000000000 ) );
#256 = SURFACE_STYLE_FILL_AREA( #292 );
#257 = ORIENTED_EDGE( '', *, *, #288, .T. );
#258 = ORIENTED_EDGE( '', *, *, #278, .T. );
#259 = CARTESIAN_POINT( '', ( 3.49932756382732E-015, -2.77555756156297E-018, 0.0500000000000014 ) );
#260 = DIRECTION( '', ( -0.000000000000000, 0.000000000000000, -1.00000000000000 ) );
#261 = DIRECTION( '', ( 0.000000000000000, 1.00000000000000, 0.000000000000000 ) );
#262 = SURFACE_STYLE_FILL_AREA( #293 );
#263 = ORIENTED_EDGE( '', *, *, #281, .F. );
#264 = ORIENTED_EDGE( '', *, *, #286, .T. );
#265 = CARTESIAN_POINT( '', ( 8.50000000000000, -2.77555756156297E-018, 14.4333842508980 ) );
#266 = DIRECTION( '', ( 0.000000000000000, 0.000000000000000, 1.00000000000000 ) );
#267 = DIRECTION( '', ( 1.00000000000000, 0.000000000000000, 0.000000000000000 ) );
#268 = FILL_AREA_STYLE( '', ( #294 ) );
#269 = EDGE_CURVE( '', #295, #295, #296, .T. );
#270 = EDGE_CURVE( '', #297, #297, #298, .F. );
#271 = FILL_AREA_STYLE( '', ( #299 ) );
#272 = EDGE_CURVE( '', #300, #300, #301, .T. );
#273 = EDGE_CURVE( '', #302, #302, #303, .T. );
#274 = FILL_AREA_STYLE( '', ( #304 ) );
#275 = EDGE_CURVE( '', #305, #305, #306, .T. );
#276 = FILL_AREA_STYLE( '', ( #307 ) );
#277 = FILL_AREA_STYLE( '', ( #308 ) );
#278 = EDGE_CURVE( '', #309, #309, #310, .T. );
#279 = CARTESIAN_POINT( '', ( 3.49932756382732E-015, -2.77555756156297E-018, 23.0500000000000 ) );
#280 = FILL_AREA_STYLE( '', ( #311 ) );
#281 = EDGE_CURVE( '', #312, #312, #313, .T. );
#282 = EDGE_CURVE( '', #314, #314, #315, .T. );
#283 = FILL_AREA_STYLE( '', ( #316 ) );
#284 = EDGE_CURVE( '', #317, #317, #318, .T. );
#285 = FILL_AREA_STYLE( '', ( #319 ) );
#286 = EDGE_CURVE( '', #320, #320, #321, .T. );
#287 = FILL_AREA_STYLE( '', ( #322 ) );
#288 = EDGE_CURVE( '', #323, #323, #324, .F. );
#289 = FILL_AREA_STYLE( '', ( #325 ) );
#290 = EDGE_CURVE( '', #326, #326, #327, .F. );
#291 = FILL_AREA_STYLE( '', ( #328 ) );
#292 = FILL_AREA_STYLE( '', ( #329 ) );
#293 = FILL_AREA_STYLE( '', ( #330 ) );
#294 = FILL_AREA_STYLE_COLOUR( '', #331 );
#295 = VERTEX_POINT( '', #332 );
#296 = CIRCLE( '', #333, 10.7703296142690 );
#297 = VERTEX_POINT( '', #334 );
#298 = CIRCLE( '', #335, 29.9991594377472 );
#299 = FILL_AREA_STYLE_COLOUR( '', #336 );
#300 = VERTEX_POINT( '', #337 );
#301 = CIRCLE( '', #338, 7.41750000000000 );
#302 = VERTEX_POINT( '', #339 );
#303 = CIRCLE( '', #340, 9.00000000000000 );
#304 = FILL_AREA_STYLE_COLOUR( '', #341 );
#305 = VERTEX_POINT( '', #342 );
#306 = CIRCLE( '', #343, 9.00000000000000 );
#307 = FILL_AREA_STYLE_COLOUR( '', #344 );
#308 = FILL_AREA_STYLE_COLOUR( '', #345 );
#309 = VERTEX_POINT( '', #346 );
#310 = CIRCLE( '', #347, 5.91750000000000 );
#311 = FILL_AREA_STYLE_COLOUR( '', #348 );
#312 = VERTEX_POINT( '', #349 );
#313 = CIRCLE( '', #350, 9.00000000000000 );
#314 = VERTEX_POINT( '', #351 );
#315 = CIRCLE( '', #352, 9.00000000000000 );
#316 = FILL_AREA_STYLE_COLOUR( '', #353 );
#317 = VERTEX_POINT( '', #354 );
#318 = CIRCLE( '', #355, 8.50000000000000 );
#319 = FILL_AREA_STYLE_COLOUR( '', #356 );
#320 = VERTEX_POINT( '', #357 );
#321 = CIRCLE( '', #358, 8.50000000000000 );
#322 = FILL_AREA_STYLE_COLOUR( '', #359 );
#323 = VERTEX_POINT( '', #360 );
#324 = CIRCLE( '', #361, 5.91750000000000 );
#325 = FILL_AREA_STYLE_COLOUR( '', #362 );
#326 = VERTEX_POINT( '', #363 );
#327 = CIRCLE( '', #364, 29.9188319656778 );
#328 = FILL_AREA_STYLE_COLOUR( '', #365 );
#329 = FILL_AREA_STYLE_COLOUR( '', #366 );
#330 = FILL_AREA_STYLE_COLOUR( '', #367 );
#331 = COLOUR_RGB( '', 0.200000002980232, 0.200000002980232, 0.200000002980232 );
#332 = CARTESIAN_POINT( '', ( -10.7703296142690, 0.000000000000000, 0.000000000000000 ) );
#333 = AXIS2_PLACEMENT_3D( '', #368, #369, #370 );
#334 = CARTESIAN_POINT( '', ( -29.9991594377472, 0.000000000000000, 27.7754270081462 ) );
#335 = AXIS2_PLACEMENT_3D( '', #371, #372, #373 );
#336 = COLOUR_RGB( '', 0.666666686534882, 0.400000005960464, 0.133333340287209 );
#337 = CARTESIAN_POINT( '', ( 7.41750000000000, -2.77555756156297E-018, 0.0500000000000014 ) );
#338 = AXIS2_PLACEMENT_3D( '', #374, #375, #376 );
#339 = CARTESIAN_POINT( '', ( 9.00000000000000, -2.77555756156297E-018, 0.0500000000000014 ) );
#340 = AXIS2_PLACEMENT_3D( '', #377, #378, #379 );
#341 = COLOUR_RGB( '', 0.200000002980232, 0.200000002980232, 0.200000002980232 );
#342 = CARTESIAN_POINT( '', ( 9.00000000000000, 0.000000000000000, 0.000000000000000 ) );
#343 = AXIS2_PLACEMENT_3D( '', #380, #381, #382 );
#344 = COLOUR_RGB( '', 0.200000002980232, 0.200000002980232, 0.200000002980232 );
#345 = COLOUR_RGB( '', 0.666666686534882, 0.400000005960464, 0.133333340287209 );
#346 = CARTESIAN_POINT( '', ( 3.49932756382732E-015, -5.91750000000000, 19.6335297820704 ) );
#347 = AXIS2_PLACEMENT_3D( '', #383, #384, #385 );
#348 = COLOUR_RGB( '', 0.200000002980232, 0.200000002980232, 0.200000002980232 );
#349 = CARTESIAN_POINT( '', ( 9.00000000000000, 0.000000000000000, 14.4333842508980 ) );
#350 = AXIS2_PLACEMENT_3D( '', #386, #387, #388 );
#351 = CARTESIAN_POINT( '', ( -9.00000000000000, 0.000000000000000, 10.4333842508980 ) );
#352 = AXIS2_PLACEMENT_3D( '', #389, #390, #391 );
#353 = COLOUR_RGB( '', 0.666666686534882, 0.400000005960464, 0.133333340287209 );
#354 = CARTESIAN_POINT( '', ( 8.50000000000000, -2.77555756156297E-018, 10.4333842508980 ) );
#355 = AXIS2_PLACEMENT_3D( '', #392, #393, #394 );
#356 = COLOUR_RGB( '', 0.666666686534882, 0.400000005960464, 0.133333340287209 );
#357 = CARTESIAN_POINT( '', ( 8.50000000000000, -2.77555756156297E-018, 14.4333842508980 ) );
#358 = AXIS2_PLACEMENT_3D( '', #395, #396, #397 );
#359 = COLOUR_RGB( '', 0.666666686534882, 0.400000005960464, 0.133333340287209 );
#360 = CARTESIAN_POINT( '', ( 5.91750000000000, -2.77555756156297E-018, 1.55000000000000 ) );
#361 = AXIS2_PLACEMENT_3D( '', #398, #399, #400 );
#362 = COLOUR_RGB( '', 0.200000002980232, 0.200000002980232, 0.200000002980232 );
#363 = CARTESIAN_POINT( '', ( 29.9188319656778, 0.000000000000000, 30.2053330382479 ) );
#364 = AXIS2_PLACEMENT_3D( '', #401, #402, #403 );
#365 = COLOUR_RGB( '', 0.200000002980232, 0.200000002980232, 0.200000002980232 );
#366 = COLOUR_RGB( '', 0.752941191196442, 0.752941191196442, 0.752941191196442 );
#367 = COLOUR_RGB( '', 0.666666686534882, 0.400000005960464, 0.133333340287209 );
#368 = CARTESIAN_POINT( '', ( 0.000000000000000, 0.000000000000000, 0.000000000000000 ) );
#369 = DIRECTION( '', ( 0.000000000000000, 0.000000000000000, -1.00000000000000 ) );
#370 = DIRECTION( '', ( -1.00000000000000, 0.000000000000000, 0.000000000000000 ) );
#371 = CARTESIAN_POINT( '', ( 0.000000000000000, 0.000000000000000, 27.7754270081462 ) );
#372 = DIRECTION( '', ( 0.000000000000000, 0.000000000000000, -1.00000000000000 ) );
#373 = DIRECTION( '', ( -1.00000000000000, 0.000000000000000, 0.000000000000000 ) );
#374 = CARTESIAN_POINT( '', ( 3.49932756382732E-015, -2.77555756156297E-018, 0.0500000000000014 ) );
#375 = DIRECTION( '', ( 0.000000000000000, 0.000000000000000, 1.00000000000000 ) );
#376 = DIRECTION( '', ( 1.00000000000000, 0.000000000000000, 0.000000000000000 ) );
#377 = CARTESIAN_POINT( '', ( 2.77555756156297E-018, -2.77555756156297E-018, 0.0500000000000014 ) );
#378 = DIRECTION( '', ( 0.000000000000000, 0.000000000000000, 1.00000000000000 ) );
#379 = DIRECTION( '', ( 1.00000000000000, 0.000000000000000, 0.000000000000000 ) );
#380 = CARTESIAN_POINT( '', ( 0.000000000000000, 0.000000000000000, 0.000000000000000 ) );
#381 = DIRECTION( '', ( 0.000000000000000, 0.000000000000000, 1.00000000000000 ) );
#382 = DIRECTION( '', ( 1.00000000000000, 0.000000000000000, 0.000000000000000 ) );
#383 = CARTESIAN_POINT( '', ( 3.49932756382732E-015, -2.77555756156297E-018, 19.6335297820704 ) );
#384 = DIRECTION( '', ( 0.000000000000000, 0.000000000000000, 1.00000000000000 ) );
#385 = DIRECTION( '', ( 0.000000000000000, -1.00000000000000, 0.000000000000000 ) );
#386 = CARTESIAN_POINT( '', ( 0.000000000000000, 0.000000000000000, 14.4333842508980 ) );
#387 = DIRECTION( '', ( 0.000000000000000, 0.000000000000000, 1.00000000000000 ) );
#388 = DIRECTION( '', ( 1.00000000000000, 0.000000000000000, 0.000000000000000 ) );
#389 = CARTESIAN_POINT( '', ( 0.000000000000000, 0.000000000000000, 10.4333842508980 ) );
#390 = DIRECTION( '', ( 0.000000000000000, 0.000000000000000, -1.00000000000000 ) );
#391 = DIRECTION( '', ( -1.00000000000000, 0.000000000000000, 0.000000000000000 ) );
#392 = CARTESIAN_POINT( '', ( 2.77555756156297E-018, -2.77555756156297E-018, 10.4333842508980 ) );
#393 = DIRECTION( '', ( 0.000000000000000, 0.000000000000000, 1.00000000000000 ) );
#394 = DIRECTION( '', ( 1.00000000000000, 0.000000000000000, 0.000000000000000 ) );
#395 = CARTESIAN_POINT( '', ( 2.77555756156297E-018, -2.77555756156297E-018, 14.4333842508980 ) );
#396 = DIRECTION( '', ( 0.000000000000000, 0.000000000000000, 1.00000000000000 ) );
#397 = DIRECTION( '', ( 1.00000000000000, 0.000000000000000, 0.000000000000000 ) );
#398 = CARTESIAN_POINT( '', ( 3.49932756382732E-015, -2.77555756156297E-018, 1.55000000000000 ) );
#399 = DIRECTION( '', ( 0.000000000000000, 0.000000000000000, 1.00000000000000 ) );
#400 = DIRECTION( '', ( 1.00000000000000, 0.000000000000000, 0.000000000000000 ) );
#401 = CARTESIAN_POINT( '', ( 0.000000000000000, 0.000000000000000, 30.2053330382479 ) );
#402 = DIRECTION( '', ( 0.000000000000000, 0.000000000000000, 1.00000000000000 ) );
#403 = DIRECTION( '', ( 1.00000000000000, 0.000000000000000, 0.000000000000000 ) );
ENDSEC;
END-ISO-10303-21;
