ISO-10303-21;
HEADER;
FILE_DESCRIPTION( ( 'Unknown' ), '1' );
FILE_NAME( '//SBS2003/HD_Usb/Disegni/10_GAMM_CD/2- Gamm_STEP/03 - MANOPOLE/03_19.1-PBO/6132075_PBO60_M16.stp', 'Unknown', ( 'Unknown' ), ( 'Unknown' ), 'PSStep 11.0', 'Unknown', '  ' );
FILE_SCHEMA( ( 'AUTOMOTIVE_DESIGN { 1 0 10303 214 1 1 1 1 }' ) );
ENDSEC;
DATA;
#1 = MECHANICAL_DESIGN_GEOMETRIC_PRESENTATION_REPRESENTATION( ' ', ( #10, #11, #12, #13, #14, #15, #16, #17, #18, #19, #20, #21, #22, #23 ), #6 );
#2 = PRODUCT_DEFINITION_CONTEXT( '', #24, 'design' );
#3 = APPLICATION_PROTOCOL_DEFINITION( 'INTERNATIONAL STANDARD', 'automotive_design', 2001, #24 );
#4 = PRODUCT_CATEGORY_RELATIONSHIP( 'NONE', 'NONE', #25, #26 );
#5 = SHAPE_DEFINITION_REPRESENTATION( #27, #28 );
#6 =  ( GEOMETRIC_REPRESENTATION_CONTEXT( 3 )GLOBAL_UNCERTAINTY_ASSIGNED_CONTEXT( ( #31 ) )GLOBAL_UNIT_ASSIGNED_CONTEXT( ( #33, #34, #35 ) )REPRESENTATION_CONTEXT( 'NONE', 'WORKSPACE' ) );
#10 = STYLED_ITEM( '', ( #37 ), #38 );
#11 = STYLED_ITEM( '', ( #39 ), #40 );
#12 = STYLED_ITEM( '', ( #41 ), #42 );
#13 = STYLED_ITEM( '', ( #43 ), #44 );
#14 = STYLED_ITEM( '', ( #45 ), #46 );
#15 = STYLED_ITEM( '', ( #47 ), #48 );
#16 = STYLED_ITEM( '', ( #49 ), #50 );
#17 = STYLED_ITEM( '', ( #51 ), #52 );
#18 = STYLED_ITEM( '', ( #53 ), #54 );
#19 = STYLED_ITEM( '', ( #55 ), #56 );
#20 = STYLED_ITEM( '', ( #57 ), #58 );
#21 = STYLED_ITEM( '', ( #59 ), #60 );
#22 = STYLED_ITEM( '', ( #61 ), #62 );
#23 = STYLED_ITEM( '', ( #63 ), #64 );
#24 = APPLICATION_CONTEXT( 'core data for automotive mechanical design processes' );
#25 = PRODUCT_CATEGORY( 'part', 'NONE' );
#26 = PRODUCT_RELATED_PRODUCT_CATEGORY( 'detail', ' ', ( #65 ) );
#27 = PRODUCT_DEFINITION_SHAPE( 'NONE', 'NONE', #66 );
#28 = ADVANCED_BREP_SHAPE_REPRESENTATION( '6132075', ( #67, #68 ), #6 );
#31 = UNCERTAINTY_MEASURE_WITH_UNIT( LENGTH_MEASURE( 0.00100000000000000 ), #33, '', '' );
#33 =  ( CONVERSION_BASED_UNIT( 'MILLIMETRE', #71 )LENGTH_UNIT(  )NAMED_UNIT( #74 ) );
#34 =  ( NAMED_UNIT( #76 )PLANE_ANGLE_UNIT(  )SI_UNIT( $, .RADIAN. ) );
#35 =  ( NAMED_UNIT( #76 )SI_UNIT( $, .STERADIAN. )SOLID_ANGLE_UNIT(  ) );
#37 = PRESENTATION_STYLE_ASSIGNMENT( ( #82 ) );
#38 = ADVANCED_FACE( '', ( #83 ), #84, .T. );
#39 = PRESENTATION_STYLE_ASSIGNMENT( ( #85 ) );
#40 = ADVANCED_FACE( '', ( #86, #87 ), #88, .F. );
#41 = PRESENTATION_STYLE_ASSIGNMENT( ( #89 ) );
#42 = ADVANCED_FACE( '', ( #90, #91 ), #92, .F. );
#43 = PRESENTATION_STYLE_ASSIGNMENT( ( #93 ) );
#44 = ADVANCED_FACE( '', ( #94, #95 ), #96, .T. );
#45 = PRESENTATION_STYLE_ASSIGNMENT( ( #97 ) );
#46 = ADVANCED_FACE( '', ( #98, #99 ), #100, .F. );
#47 = PRESENTATION_STYLE_ASSIGNMENT( ( #101 ) );
#48 = ADVANCED_FACE( '', ( #102, #103 ), #104, .T. );
#49 = PRESENTATION_STYLE_ASSIGNMENT( ( #105 ) );
#50 = ADVANCED_FACE( '', ( #106, #107 ), #108, .T. );
#51 = PRESENTATION_STYLE_ASSIGNMENT( ( #109 ) );
#52 = ADVANCED_FACE( '', ( #110, #111 ), #112, .F. );
#53 = PRESENTATION_STYLE_ASSIGNMENT( ( #113 ) );
#54 = ADVANCED_FACE( '', ( #114, #115 ), #116, .F. );
#55 = PRESENTATION_STYLE_ASSIGNMENT( ( #117 ) );
#56 = ADVANCED_FACE( '', ( #118, #119 ), #120, .T. );
#57 = PRESENTATION_STYLE_ASSIGNMENT( ( #121 ) );
#58 = ADVANCED_FACE( '', ( #122, #123 ), #124, .F. );
#59 = PRESENTATION_STYLE_ASSIGNMENT( ( #125 ) );
#60 = ADVANCED_FACE( '', ( #126, #127 ), #128, .F. );
#61 = PRESENTATION_STYLE_ASSIGNMENT( ( #129 ) );
#62 = ADVANCED_FACE( '', ( #130, #131 ), #132, .F. );
#63 = PRESENTATION_STYLE_ASSIGNMENT( ( #133 ) );
#64 = ADVANCED_FACE( '', ( #134, #135 ), #136, .F. );
#65 = PRODUCT( '6132075', '6132075', 'PART-6132075-DESC', ( #137 ) );
#66 = PRODUCT_DEFINITION( 'NONE', 'NONE', #138, #2 );
#67 = BREP_WITH_VOIDS( '6132075', #139, ( #140 ) );
#68 = AXIS2_PLACEMENT_3D( '', #141, #142, #143 );
#71 = LENGTH_MEASURE_WITH_UNIT( LENGTH_MEASURE( 1.00000000000000 ), #144 );
#74 = DIMENSIONAL_EXPONENTS( 1.00000000000000, 0.000000000000000, 0.000000000000000, 0.000000000000000, 0.000000000000000, 0.000000000000000, 0.000000000000000 );
#76 = DIMENSIONAL_EXPONENTS( 0.000000000000000, 0.000000000000000, 0.000000000000000, 0.000000000000000, 0.000000000000000, 0.000000000000000, 0.000000000000000 );
#82 = SURFACE_STYLE_USAGE( .BOTH., #145 );
#83 = FACE_OUTER_BOUND( '', #146, .T. );
#84 = SPHERICAL_SURFACE( '', #147, 30.0000000000000 );
#85 = SURFACE_STYLE_USAGE( .BOTH., #148 );
#86 = FACE_BOUND( '', #149, .T. );
#87 = FACE_OUTER_BOUND( '', #150, .T. );
#88 = PLANE( '', #151 );
#89 = SURFACE_STYLE_USAGE( .BOTH., #152 );
#90 = FACE_OUTER_BOUND( '', #153, .T. );
#91 = FACE_OUTER_BOUND( '', #154, .T. );
#92 = CYLINDRICAL_SURFACE( '', #155, 10.0000000000000 );
#93 = SURFACE_STYLE_USAGE( .BOTH., #156 );
#94 = FACE_BOUND( '', #157, .T. );
#95 = FACE_OUTER_BOUND( '', #158, .T. );
#96 = CONICAL_SURFACE( '', #159, 11.7000000000000, 0.785398163397448 );
#97 = SURFACE_STYLE_USAGE( .BOTH., #160 );
#98 = FACE_OUTER_BOUND( '', #161, .T. );
#99 = FACE_OUTER_BOUND( '', #162, .T. );
#100 = TOROIDAL_SURFACE( '', #163, 30.2500000000000, 1.25000000000000 );
#101 = SURFACE_STYLE_USAGE( .BOTH., #164 );
#102 = FACE_OUTER_BOUND( '', #165, .T. );
#103 = FACE_OUTER_BOUND( '', #166, .T. );
#104 = CYLINDRICAL_SURFACE( '', #167, 9.50000000000000 );
#105 = SURFACE_STYLE_USAGE( .BOTH., #168 );
#106 = FACE_OUTER_BOUND( '', #169, .T. );
#107 = FACE_BOUND( '', #170, .T. );
#108 = PLANE( '', #171 );
#109 = SURFACE_STYLE_USAGE( .BOTH., #172 );
#110 = FACE_OUTER_BOUND( '', #173, .T. );
#111 = FACE_BOUND( '', #174, .T. );
#112 = PLANE( '', #175 );
#113 = SURFACE_STYLE_USAGE( .BOTH., #176 );
#114 = FACE_BOUND( '', #177, .T. );
#115 = FACE_OUTER_BOUND( '', #178, .T. );
#116 = CONICAL_SURFACE( '', #179, 8.41750000000000, 0.785398163397448 );
#117 = SURFACE_STYLE_USAGE( .BOTH., #180 );
#118 = FACE_OUTER_BOUND( '', #181, .T. );
#119 = FACE_OUTER_BOUND( '', #182, .T. );
#120 = SPHERICAL_SURFACE( '', #183, 30.0000000000000 );
#121 = SURFACE_STYLE_USAGE( .BOTH., #184 );
#122 = FACE_OUTER_BOUND( '', #185, .T. );
#123 = FACE_BOUND( '', #186, .T. );
#124 = CONICAL_SURFACE( '', #187, 6.91750000000000, 1.04719755119660 );
#125 = SURFACE_STYLE_USAGE( .BOTH., #188 );
#126 = FACE_OUTER_BOUND( '', #189, .T. );
#127 = FACE_BOUND( '', #190, .T. );
#128 = PLANE( '', #191 );
#129 = SURFACE_STYLE_USAGE( .BOTH., #192 );
#130 = FACE_OUTER_BOUND( '', #193, .T. );
#131 = FACE_OUTER_BOUND( '', #194, .T. );
#132 = CYLINDRICAL_SURFACE( '', #195, 6.91750000000000 );
#133 = SURFACE_STYLE_USAGE( .BOTH., #196 );
#134 = FACE_OUTER_BOUND( '', #197, .T. );
#135 = FACE_OUTER_BOUND( '', #198, .T. );
#136 = CYLINDRICAL_SURFACE( '', #199, 10.0000000000000 );
#137 = PRODUCT_CONTEXT( '', #24, 'mechanical' );
#138 = PRODUCT_DEFINITION_FORMATION_WITH_SPECIFIED_SOURCE( ' ', 'NONE', #65, .NOT_KNOWN. );
#139 = CLOSED_SHELL( '', ( #44, #38, #58, #54, #62, #40, #42, #50, #46, #56 ) );
#140 = ORIENTED_CLOSED_SHELL( '', *, #200, .T. );
#141 = CARTESIAN_POINT( '', ( 0.000000000000000, 0.000000000000000, 0.000000000000000 ) );
#142 = DIRECTION( '', ( 0.000000000000000, 0.000000000000000, 1.00000000000000 ) );
#143 = DIRECTION( '', ( 1.00000000000000, 0.000000000000000, 0.000000000000000 ) );
#144 =  ( LENGTH_UNIT(  )NAMED_UNIT( #74 )SI_UNIT( .MILLI., .METRE. ) );
#145 = SURFACE_SIDE_STYLE( '', ( #202 ) );
#146 = EDGE_LOOP( '', ( #203 ) );
#147 = AXIS2_PLACEMENT_3D( '', #204, #205, #206 );
#148 = SURFACE_SIDE_STYLE( '', ( #207 ) );
#149 = EDGE_LOOP( '', ( #208 ) );
#150 = EDGE_LOOP( '', ( #209 ) );
#151 = AXIS2_PLACEMENT_3D( '', #210, #211, #212 );
#152 = SURFACE_SIDE_STYLE( '', ( #213 ) );
#153 = EDGE_LOOP( '', ( #214 ) );
#154 = EDGE_LOOP( '', ( #215 ) );
#155 = AXIS2_PLACEMENT_3D( '', #216, #217, #218 );
#156 = SURFACE_SIDE_STYLE( '', ( #219 ) );
#157 = EDGE_LOOP( '', ( #220 ) );
#158 = EDGE_LOOP( '', ( #221 ) );
#159 = AXIS2_PLACEMENT_3D( '', #222, #223, #224 );
#160 = SURFACE_SIDE_STYLE( '', ( #225 ) );
#161 = EDGE_LOOP( '', ( #226 ) );
#162 = EDGE_LOOP( '', ( #227 ) );
#163 = AXIS2_PLACEMENT_3D( '', #228, #229, #230 );
#164 = SURFACE_SIDE_STYLE( '', ( #231 ) );
#165 = EDGE_LOOP( '', ( #232 ) );
#166 = EDGE_LOOP( '', ( #233 ) );
#167 = AXIS2_PLACEMENT_3D( '', #234, #235, #236 );
#168 = SURFACE_SIDE_STYLE( '', ( #237 ) );
#169 = EDGE_LOOP( '', ( #238 ) );
#170 = EDGE_LOOP( '', ( #239 ) );
#171 = AXIS2_PLACEMENT_3D( '', #240, #241, #242 );
#172 = SURFACE_SIDE_STYLE( '', ( #243 ) );
#173 = EDGE_LOOP( '', ( #244 ) );
#174 = EDGE_LOOP( '', ( #245 ) );
#175 = AXIS2_PLACEMENT_3D( '', #246, #247, #248 );
#176 = SURFACE_SIDE_STYLE( '', ( #249 ) );
#177 = EDGE_LOOP( '', ( #250 ) );
#178 = EDGE_LOOP( '', ( #251 ) );
#179 = AXIS2_PLACEMENT_3D( '', #252, #253, #254 );
#180 = SURFACE_SIDE_STYLE( '', ( #255 ) );
#181 = EDGE_LOOP( '', ( #256 ) );
#182 = EDGE_LOOP( '', ( #257 ) );
#183 = AXIS2_PLACEMENT_3D( '', #258, #259, #260 );
#184 = SURFACE_SIDE_STYLE( '', ( #261 ) );
#185 = EDGE_LOOP( '', ( #262 ) );
#186 = VERTEX_LOOP( '', #263 );
#187 = AXIS2_PLACEMENT_3D( '', #264, #265, #266 );
#188 = SURFACE_SIDE_STYLE( '', ( #267 ) );
#189 = EDGE_LOOP( '', ( #268 ) );
#190 = EDGE_LOOP( '', ( #269 ) );
#191 = AXIS2_PLACEMENT_3D( '', #270, #271, #272 );
#192 = SURFACE_SIDE_STYLE( '', ( #273 ) );
#193 = EDGE_LOOP( '', ( #274 ) );
#194 = EDGE_LOOP( '', ( #275 ) );
#195 = AXIS2_PLACEMENT_3D( '', #276, #277, #278 );
#196 = SURFACE_SIDE_STYLE( '', ( #279 ) );
#197 = EDGE_LOOP( '', ( #280 ) );
#198 = EDGE_LOOP( '', ( #281 ) );
#199 = AXIS2_PLACEMENT_3D( '', #282, #283, #284 );
#200 = CLOSED_SHELL( '', ( #60, #48, #52, #64 ) );
#202 = SURFACE_STYLE_FILL_AREA( #285 );
#203 = ORIENTED_EDGE( '', *, *, #286, .F. );
#204 = CARTESIAN_POINT( '', ( 0.000000000000000, 0.000000000000000, 28.0000000000000 ) );
#205 = DIRECTION( '', ( 0.000000000000000, 0.000000000000000, 1.00000000000000 ) );
#206 = DIRECTION( '', ( 1.00000000000000, 0.000000000000000, 0.000000000000000 ) );
#207 = SURFACE_STYLE_FILL_AREA( #287 );
#208 = ORIENTED_EDGE( '', *, *, #288, .T. );
#209 = ORIENTED_EDGE( '', *, *, #289, .F. );
#210 = CARTESIAN_POINT( '', ( 3.89400570413633E-015, -2.77555756156258E-018, 0.0499999999999980 ) );
#211 = DIRECTION( '', ( 0.000000000000000, 0.000000000000000, 1.00000000000000 ) );
#212 = DIRECTION( '', ( 1.00000000000000, 0.000000000000000, 0.000000000000000 ) );
#213 = SURFACE_STYLE_FILL_AREA( #290 );
#214 = ORIENTED_EDGE( '', *, *, #291, .F. );
#215 = ORIENTED_EDGE( '', *, *, #292, .F. );
#216 = CARTESIAN_POINT( '', ( 0.000000000000000, 0.000000000000000, 57.1500000000000 ) );
#217 = DIRECTION( '', ( -0.000000000000000, -0.000000000000000, -1.00000000000000 ) );
#218 = DIRECTION( '', ( 1.00000000000000, 0.000000000000000, 0.000000000000000 ) );
#219 = SURFACE_STYLE_FILL_AREA( #293 );
#220 = ORIENTED_EDGE( '', *, *, #289, .T. );
#221 = ORIENTED_EDGE( '', *, *, #291, .T. );
#222 = CARTESIAN_POINT( '', ( 2.77555756156258E-018, -2.77555756156258E-018, 2.25000000000000 ) );
#223 = DIRECTION( '', ( -0.000000000000000, -0.000000000000000, 1.00000000000000 ) );
#224 = DIRECTION( '', ( 1.00000000000000, 0.000000000000000, 0.000000000000000 ) );
#225 = SURFACE_STYLE_FILL_AREA( #294 );
#226 = ORIENTED_EDGE( '', *, *, #295, .T. );
#227 = ORIENTED_EDGE( '', *, *, #286, .T. );
#228 = CARTESIAN_POINT( '', ( 0.000000000000000, 0.000000000000000, 29.0000000000000 ) );
#229 = DIRECTION( '', ( 0.000000000000000, 0.000000000000000, 1.00000000000000 ) );
#230 = DIRECTION( '', ( 1.00000000000000, 0.000000000000000, 0.000000000000000 ) );
#231 = SURFACE_STYLE_FILL_AREA( #296 );
#232 = ORIENTED_EDGE( '', *, *, #297, .F. );
#233 = ORIENTED_EDGE( '', *, *, #298, .T. );
#234 = CARTESIAN_POINT( '', ( 2.77555756156258E-018, -2.77555756156258E-018, 57.2000000000000 ) );
#235 = DIRECTION( '', ( -0.000000000000000, -0.000000000000000, -1.00000000000000 ) );
#236 = DIRECTION( '', ( 1.00000000000000, 0.000000000000000, 0.000000000000000 ) );
#237 = SURFACE_STYLE_FILL_AREA( #299 );
#238 = ORIENTED_EDGE( '', *, *, #300, .T. );
#239 = ORIENTED_EDGE( '', *, *, #292, .T. );
#240 = CARTESIAN_POINT( '', ( 11.0000000000000, 0.000000000000000, -3.38813178901721E-017 ) );
#241 = DIRECTION( '', ( 0.000000000000000, 0.000000000000000, -1.00000000000000 ) );
#242 = DIRECTION( '', ( -1.00000000000000, 0.000000000000000, 0.000000000000000 ) );
#243 = SURFACE_STYLE_FILL_AREA( #301 );
#244 = ORIENTED_EDGE( '', *, *, #302, .F. );
#245 = ORIENTED_EDGE( '', *, *, #298, .F. );
#246 = CARTESIAN_POINT( '', ( 11.5450000000000, -2.77555756156258E-018, 10.1275888622028 ) );
#247 = DIRECTION( '', ( 0.000000000000000, 0.000000000000000, -1.00000000000000 ) );
#248 = DIRECTION( '', ( -1.00000000000000, 0.000000000000000, 0.000000000000000 ) );
#249 = SURFACE_STYLE_FILL_AREA( #303 );
#250 = ORIENTED_EDGE( '', *, *, #304, .F. );
#251 = ORIENTED_EDGE( '', *, *, #288, .F. );
#252 = CARTESIAN_POINT( '', ( 3.49932756382732E-015, -2.77555756156258E-018, 0.0499999999999980 ) );
#253 = DIRECTION( '', ( -0.000000000000000, 0.000000000000000, -1.00000000000000 ) );
#254 = DIRECTION( '', ( -1.00000000000000, 0.000000000000000, 0.000000000000000 ) );
#255 = SURFACE_STYLE_FILL_AREA( #305 );
#256 = ORIENTED_EDGE( '', *, *, #300, .F. );
#257 = ORIENTED_EDGE( '', *, *, #295, .F. );
#258 = CARTESIAN_POINT( '', ( 0.000000000000000, 0.000000000000000, 28.0000000000000 ) );
#259 = DIRECTION( '', ( 0.000000000000000, 0.000000000000000, 1.00000000000000 ) );
#260 = DIRECTION( '', ( 1.00000000000000, 0.000000000000000, 0.000000000000000 ) );
#261 = SURFACE_STYLE_FILL_AREA( #306 );
#262 = ORIENTED_EDGE( '', *, *, #307, .F. );
#263 = VERTEX_POINT( '', #308 );
#264 = CARTESIAN_POINT( '', ( 3.49932756382732E-015, -2.77555756156258E-018, 19.0561795128808 ) );
#265 = DIRECTION( '', ( 0.000000000000000, -0.000000000000000, -1.00000000000000 ) );
#266 = DIRECTION( '', ( 0.000000000000000, -1.00000000000000, 0.000000000000000 ) );
#267 = SURFACE_STYLE_FILL_AREA( #309 );
#268 = ORIENTED_EDGE( '', *, *, #310, .F. );
#269 = ORIENTED_EDGE( '', *, *, #297, .T. );
#270 = CARTESIAN_POINT( '', ( 9.50000000000000, -2.77555756156258E-018, 14.1275888622028 ) );
#271 = DIRECTION( '', ( 0.000000000000000, 0.000000000000000, 1.00000000000000 ) );
#272 = DIRECTION( '', ( 1.00000000000000, 0.000000000000000, 0.000000000000000 ) );
#273 = SURFACE_STYLE_FILL_AREA( #311 );
#274 = ORIENTED_EDGE( '', *, *, #304, .T. );
#275 = ORIENTED_EDGE( '', *, *, #307, .T. );
#276 = CARTESIAN_POINT( '', ( 3.49932756382732E-015, -2.77555756156258E-018, 0.0499999999999980 ) );
#277 = DIRECTION( '', ( -0.000000000000000, 0.000000000000000, -1.00000000000000 ) );
#278 = DIRECTION( '', ( 0.000000000000000, 1.00000000000000, 0.000000000000000 ) );
#279 = SURFACE_STYLE_FILL_AREA( #312 );
#280 = ORIENTED_EDGE( '', *, *, #310, .T. );
#281 = ORIENTED_EDGE( '', *, *, #302, .T. );
#282 = CARTESIAN_POINT( '', ( 0.000000000000000, 0.000000000000000, 57.1500000000000 ) );
#283 = DIRECTION( '', ( -0.000000000000000, -0.000000000000000, -1.00000000000000 ) );
#284 = DIRECTION( '', ( 1.00000000000000, 0.000000000000000, 0.000000000000000 ) );
#285 = FILL_AREA_STYLE( '', ( #313 ) );
#286 = EDGE_CURVE( '', #314, #314, #315, .F. );
#287 = FILL_AREA_STYLE( '', ( #316 ) );
#288 = EDGE_CURVE( '', #317, #317, #318, .T. );
#289 = EDGE_CURVE( '', #319, #319, #320, .T. );
#290 = FILL_AREA_STYLE( '', ( #321 ) );
#291 = EDGE_CURVE( '', #322, #322, #323, .F. );
#292 = EDGE_CURVE( '', #324, #324, #325, .T. );
#293 = FILL_AREA_STYLE( '', ( #326 ) );
#294 = FILL_AREA_STYLE( '', ( #327 ) );
#295 = EDGE_CURVE( '', #328, #328, #329, .F. );
#296 = FILL_AREA_STYLE( '', ( #330 ) );
#297 = EDGE_CURVE( '', #331, #331, #332, .T. );
#298 = EDGE_CURVE( '', #333, #333, #334, .T. );
#299 = FILL_AREA_STYLE( '', ( #335 ) );
#300 = EDGE_CURVE( '', #336, #336, #337, .T. );
#301 = FILL_AREA_STYLE( '', ( #338 ) );
#302 = EDGE_CURVE( '', #339, #339, #340, .T. );
#303 = FILL_AREA_STYLE( '', ( #341 ) );
#304 = EDGE_CURVE( '', #342, #342, #343, .F. );
#305 = FILL_AREA_STYLE( '', ( #344 ) );
#306 = FILL_AREA_STYLE( '', ( #345 ) );
#307 = EDGE_CURVE( '', #346, #346, #347, .T. );
#308 = CARTESIAN_POINT( '', ( 3.49932756382732E-015, -2.77555756156258E-018, 23.0500000000000 ) );
#309 = FILL_AREA_STYLE( '', ( #348 ) );
#310 = EDGE_CURVE( '', #349, #349, #350, .T. );
#311 = FILL_AREA_STYLE( '', ( #351 ) );
#312 = FILL_AREA_STYLE( '', ( #352 ) );
#313 = FILL_AREA_STYLE_COLOUR( '', #353 );
#314 = VERTEX_POINT( '', #354 );
#315 = CIRCLE( '', #355, 29.9188319656778 );
#316 = FILL_AREA_STYLE_COLOUR( '', #356 );
#317 = VERTEX_POINT( '', #357 );
#318 = CIRCLE( '', #358, 8.41750000000000 );
#319 = VERTEX_POINT( '', #359 );
#320 = CIRCLE( '', #360, 9.50000000000000 );
#321 = FILL_AREA_STYLE_COLOUR( '', #361 );
#322 = VERTEX_POINT( '', #362 );
#323 = CIRCLE( '', #363, 10.0000000000000 );
#324 = VERTEX_POINT( '', #364 );
#325 = CIRCLE( '', #365, 10.0000000000000 );
#326 = FILL_AREA_STYLE_COLOUR( '', #366 );
#327 = FILL_AREA_STYLE_COLOUR( '', #367 );
#328 = VERTEX_POINT( '', #368 );
#329 = CIRCLE( '', #369, 29.9991594377472 );
#330 = FILL_AREA_STYLE_COLOUR( '', #370 );
#331 = VERTEX_POINT( '', #371 );
#332 = CIRCLE( '', #372, 9.50000000000000 );
#333 = VERTEX_POINT( '', #373 );
#334 = CIRCLE( '', #374, 9.50000000000000 );
#335 = FILL_AREA_STYLE_COLOUR( '', #375 );
#336 = VERTEX_POINT( '', #376 );
#337 = CIRCLE( '', #377, 10.7703296142690 );
#338 = FILL_AREA_STYLE_COLOUR( '', #378 );
#339 = VERTEX_POINT( '', #379 );
#340 = CIRCLE( '', #380, 10.0000000000000 );
#341 = FILL_AREA_STYLE_COLOUR( '', #381 );
#342 = VERTEX_POINT( '', #382 );
#343 = CIRCLE( '', #383, 6.91750000000000 );
#344 = FILL_AREA_STYLE_COLOUR( '', #384 );
#345 = FILL_AREA_STYLE_COLOUR( '', #385 );
#346 = VERTEX_POINT( '', #386 );
#347 = CIRCLE( '', #387, 6.91750000000000 );
#348 = FILL_AREA_STYLE_COLOUR( '', #388 );
#349 = VERTEX_POINT( '', #389 );
#350 = CIRCLE( '', #390, 10.0000000000000 );
#351 = FILL_AREA_STYLE_COLOUR( '', #391 );
#352 = FILL_AREA_STYLE_COLOUR( '', #392 );
#353 = COLOUR_RGB( '', 0.200000002980232, 0.200000002980232, 0.200000002980232 );
#354 = CARTESIAN_POINT( '', ( 29.9188319656778, 0.000000000000000, 30.2053330382479 ) );
#355 = AXIS2_PLACEMENT_3D( '', #393, #394, #395 );
#356 = COLOUR_RGB( '', 0.666666686534882, 0.400000005960464, 0.133333340287209 );
#357 = CARTESIAN_POINT( '', ( 8.41750000000000, -2.77555756156258E-018, 0.0499999999999980 ) );
#358 = AXIS2_PLACEMENT_3D( '', #396, #397, #398 );
#359 = CARTESIAN_POINT( '', ( 9.50000000000000, -2.77555756156258E-018, 0.0499999999999980 ) );
#360 = AXIS2_PLACEMENT_3D( '', #399, #400, #401 );
#361 = COLOUR_RGB( '', 0.200000002980232, 0.200000002980232, 0.200000002980232 );
#362 = CARTESIAN_POINT( '', ( 10.0000000000000, -2.77555756156258E-018, 0.550000000000000 ) );
#363 = AXIS2_PLACEMENT_3D( '', #402, #403, #404 );
#364 = CARTESIAN_POINT( '', ( 10.0000000000000, 0.000000000000000, 0.000000000000000 ) );
#365 = AXIS2_PLACEMENT_3D( '', #405, #406, #407 );
#366 = COLOUR_RGB( '', 0.666666686534882, 0.400000005960464, 0.133333340287209 );
#367 = COLOUR_RGB( '', 0.200000002980232, 0.200000002980232, 0.200000002980232 );
#368 = CARTESIAN_POINT( '', ( -29.9991594377472, 0.000000000000000, 27.7754270081462 ) );
#369 = AXIS2_PLACEMENT_3D( '', #408, #409, #410 );
#370 = COLOUR_RGB( '', 0.666666686534882, 0.400000005960464, 0.133333340287209 );
#371 = CARTESIAN_POINT( '', ( 9.50000000000000, -2.77555756156258E-018, 14.1275888622028 ) );
#372 = AXIS2_PLACEMENT_3D( '', #411, #412, #413 );
#373 = CARTESIAN_POINT( '', ( 9.50000000000000, -2.77555756156258E-018, 10.1275888622028 ) );
#374 = AXIS2_PLACEMENT_3D( '', #414, #415, #416 );
#375 = COLOUR_RGB( '', 0.200000002980232, 0.200000002980232, 0.200000002980232 );
#376 = CARTESIAN_POINT( '', ( -10.7703296142690, 0.000000000000000, 0.000000000000000 ) );
#377 = AXIS2_PLACEMENT_3D( '', #417, #418, #419 );
#378 = COLOUR_RGB( '', 0.666666686534882, 0.400000005960464, 0.133333340287209 );
#379 = CARTESIAN_POINT( '', ( -10.0000000000000, 0.000000000000000, 10.1275888622028 ) );
#380 = AXIS2_PLACEMENT_3D( '', #420, #421, #422 );
#381 = COLOUR_RGB( '', 0.666666686534882, 0.400000005960464, 0.133333340287209 );
#382 = CARTESIAN_POINT( '', ( 6.91750000000000, -2.77555756156258E-018, 1.55000000000000 ) );
#383 = AXIS2_PLACEMENT_3D( '', #423, #424, #425 );
#384 = COLOUR_RGB( '', 0.200000002980232, 0.200000002980232, 0.200000002980232 );
#385 = COLOUR_RGB( '', 0.666666686534882, 0.400000005960464, 0.133333340287209 );
#386 = CARTESIAN_POINT( '', ( 3.49932756382732E-015, -6.91750000000000, 19.0561795128808 ) );
#387 = AXIS2_PLACEMENT_3D( '', #426, #427, #428 );
#388 = COLOUR_RGB( '', 0.666666686534882, 0.400000005960464, 0.133333340287209 );
#389 = CARTESIAN_POINT( '', ( 10.0000000000000, 0.000000000000000, 14.1275888622028 ) );
#390 = AXIS2_PLACEMENT_3D( '', #429, #430, #431 );
#391 = COLOUR_RGB( '', 0.752941191196442, 0.752941191196442, 0.752941191196442 );
#392 = COLOUR_RGB( '', 0.200000002980232, 0.200000002980232, 0.200000002980232 );
#393 = CARTESIAN_POINT( '', ( 0.000000000000000, 0.000000000000000, 30.2053330382479 ) );
#394 = DIRECTION( '', ( 0.000000000000000, 0.000000000000000, 1.00000000000000 ) );
#395 = DIRECTION( '', ( 1.00000000000000, 0.000000000000000, 0.000000000000000 ) );
#396 = CARTESIAN_POINT( '', ( 3.49932756382732E-015, -2.77555756156258E-018, 0.0499999999999980 ) );
#397 = DIRECTION( '', ( 0.000000000000000, 0.000000000000000, 1.00000000000000 ) );
#398 = DIRECTION( '', ( 1.00000000000000, 0.000000000000000, 0.000000000000000 ) );
#399 = CARTESIAN_POINT( '', ( 2.77555756156258E-018, -2.77555756156258E-018, 0.0499999999999980 ) );
#400 = DIRECTION( '', ( 0.000000000000000, 0.000000000000000, 1.00000000000000 ) );
#401 = DIRECTION( '', ( 1.00000000000000, 0.000000000000000, 0.000000000000000 ) );
#402 = CARTESIAN_POINT( '', ( 2.77555756156258E-018, -2.77555756156258E-018, 0.550000000000000 ) );
#403 = DIRECTION( '', ( 0.000000000000000, 0.000000000000000, 1.00000000000000 ) );
#404 = DIRECTION( '', ( 1.00000000000000, 0.000000000000000, 0.000000000000000 ) );
#405 = CARTESIAN_POINT( '', ( 0.000000000000000, 0.000000000000000, 0.000000000000000 ) );
#406 = DIRECTION( '', ( 0.000000000000000, 0.000000000000000, 1.00000000000000 ) );
#407 = DIRECTION( '', ( 1.00000000000000, 0.000000000000000, 0.000000000000000 ) );
#408 = CARTESIAN_POINT( '', ( 0.000000000000000, 0.000000000000000, 27.7754270081462 ) );
#409 = DIRECTION( '', ( 0.000000000000000, 0.000000000000000, -1.00000000000000 ) );
#410 = DIRECTION( '', ( -1.00000000000000, 0.000000000000000, 0.000000000000000 ) );
#411 = CARTESIAN_POINT( '', ( 2.77555756156258E-018, -2.77555756156258E-018, 14.1275888622028 ) );
#412 = DIRECTION( '', ( 0.000000000000000, 0.000000000000000, 1.00000000000000 ) );
#413 = DIRECTION( '', ( 1.00000000000000, 0.000000000000000, 0.000000000000000 ) );
#414 = CARTESIAN_POINT( '', ( 2.77555756156258E-018, -2.77555756156258E-018, 10.1275888622028 ) );
#415 = DIRECTION( '', ( 0.000000000000000, 0.000000000000000, 1.00000000000000 ) );
#416 = DIRECTION( '', ( 1.00000000000000, 0.000000000000000, 0.000000000000000 ) );
#417 = CARTESIAN_POINT( '', ( 0.000000000000000, 0.000000000000000, 0.000000000000000 ) );
#418 = DIRECTION( '', ( 0.000000000000000, 0.000000000000000, -1.00000000000000 ) );
#419 = DIRECTION( '', ( -1.00000000000000, 0.000000000000000, 0.000000000000000 ) );
#420 = CARTESIAN_POINT( '', ( 0.000000000000000, 0.000000000000000, 10.1275888622028 ) );
#421 = DIRECTION( '', ( 0.000000000000000, 0.000000000000000, -1.00000000000000 ) );
#422 = DIRECTION( '', ( -1.00000000000000, 0.000000000000000, 0.000000000000000 ) );
#423 = CARTESIAN_POINT( '', ( 3.49932756382732E-015, -2.77555756156258E-018, 1.55000000000000 ) );
#424 = DIRECTION( '', ( 0.000000000000000, 0.000000000000000, 1.00000000000000 ) );
#425 = DIRECTION( '', ( 1.00000000000000, 0.000000000000000, 0.000000000000000 ) );
#426 = CARTESIAN_POINT( '', ( 3.49932756382732E-015, -2.77555756156258E-018, 19.0561795128808 ) );
#427 = DIRECTION( '', ( 0.000000000000000, 0.000000000000000, 1.00000000000000 ) );
#428 = DIRECTION( '', ( 0.000000000000000, -1.00000000000000, 0.000000000000000 ) );
#429 = CARTESIAN_POINT( '', ( 0.000000000000000, 0.000000000000000, 14.1275888622028 ) );
#430 = DIRECTION( '', ( 0.000000000000000, 0.000000000000000, 1.00000000000000 ) );
#431 = DIRECTION( '', ( 1.00000000000000, 0.000000000000000, 0.000000000000000 ) );
ENDSEC;
END-ISO-10303-21;
