ISO-10303-21;
HEADER;
FILE_DESCRIPTION( ( 'Unknown' ), '1' );
FILE_NAME( 'C:/SOLIDEDGE/STEP - catalogo CD/03 - MANOPOLE/MC - Foro filettato/6136013_MC21x50.stp', 'Unknown', ( 'Unknown' ), ( 'Unknown' ), 'XStep 1.0', 'Unknown', ' ' );
FILE_SCHEMA( ( 'CONFIG_CONTROL_DESIGN' ) );
ENDSEC;
DATA;
#1 = DESIGN_CONTEXT( '', #27, 'design' );
#2 = APPLICATION_PROTOCOL_DEFINITION( 'INTERNATIONAL STANDARD', 'config_control_design', 1994, #27 );
#3 = PRODUCT_CATEGORY_RELATIONSHIP( 'NONE', 'NONE', #28, #29 );
#4 = DATE_AND_TIME( #30, #31 );
#5 = DATE_TIME_ROLE( 'creation_date' );
#6 = DATE_TIME_ROLE( 'classification_date' );
#7 = PERSON_AND_ORGANIZATION_ROLE( 'creator' );
#8 = PERSON_AND_ORGANIZATION_ROLE( 'design_supplier' );
#9 = PERSON_AND_ORGANIZATION_ROLE( 'classification_officer' );
#10 = PERSON_AND_ORGANIZATION_ROLE( 'design_owner' );
#11 = APPROVAL_PERSON_ORGANIZATION( #32, #33, #34 );
#12 = APPROVAL_DATE_TIME( #4, #33 );
#13 = CC_DESIGN_APPROVAL( #33, ( #35, #36, #37 ) );
#14 = CC_DESIGN_DATE_AND_TIME_ASSIGNMENT( #4, #5, ( #37 ) );
#15 = CC_DESIGN_DATE_AND_TIME_ASSIGNMENT( #4, #6, ( #35 ) );
#16 = CC_DESIGN_PERSON_AND_ORGANIZATION_ASSIGNMENT( #32, #10, ( #38 ) );
#17 = CC_DESIGN_PERSON_AND_ORGANIZATION_ASSIGNMENT( #32, #7, ( #37 ) );
#18 = CC_DESIGN_PERSON_AND_ORGANIZATION_ASSIGNMENT( #32, #7, ( #36 ) );
#19 = CC_DESIGN_PERSON_AND_ORGANIZATION_ASSIGNMENT( #32, #8, ( #36 ) );
#20 = CC_DESIGN_SECURITY_CLASSIFICATION( #35, ( #36 ) );
#21 = CC_DESIGN_PERSON_AND_ORGANIZATION_ASSIGNMENT( #32, #9, ( #35 ) );
#22 = SHAPE_DEFINITION_REPRESENTATION( #39, #40 );
#23 =  ( GEOMETRIC_REPRESENTATION_CONTEXT( 3 )GLOBAL_UNCERTAINTY_ASSIGNED_CONTEXT( ( #43 ) )GLOBAL_UNIT_ASSIGNED_CONTEXT( ( #45, #46, #47 ) )REPRESENTATION_CONTEXT( 'NONE', 'WORKSPACE' ) );
#27 = APPLICATION_CONTEXT( 'CONFIGURATION CONTROLLED 3D DESIGNS OF MECHANICAL PARTS AND ASSEMBLIES' );
#28 = PRODUCT_CATEGORY( 'part', 'NONE' );
#29 = PRODUCT_RELATED_PRODUCT_CATEGORY( 'detail', ' ', ( #38 ) );
#30 = CALENDAR_DATE( 2005, 6, 4 );
#31 = LOCAL_TIME( 13, 48, 58.0000000000000, #49 );
#32 = PERSON_AND_ORGANIZATION( #50, #51 );
#33 = APPROVAL( #52, 'SOLID MODEL' );
#34 = APPROVAL_ROLE( 'APPROVED' );
#35 = SECURITY_CLASSIFICATION( '', '', #53 );
#36 = PRODUCT_DEFINITION_FORMATION_WITH_SPECIFIED_SOURCE( ' ', 'NONE', #38, .NOT_KNOWN. );
#37 = PRODUCT_DEFINITION( 'NONE', 'NONE', #36, #1 );
#38 = PRODUCT( '1', '1', 'PART-1-DESC', ( #54 ) );
#39 = PRODUCT_DEFINITION_SHAPE( 'NONE', 'NONE', #37 );
#40 = ADVANCED_BREP_SHAPE_REPRESENTATION( '1', ( #55, #56 ), #23 );
#43 = UNCERTAINTY_MEASURE_WITH_UNIT( LENGTH_MEASURE( 0.00100000000000000 ), #45, '', '' );
#45 =  ( CONVERSION_BASED_UNIT( 'MILLIMETRE', #59 )LENGTH_UNIT(  )NAMED_UNIT( #62 ) );
#46 =  ( NAMED_UNIT( #64 )PLANE_ANGLE_UNIT(  )SI_UNIT( $, .RADIAN. ) );
#47 =  ( NAMED_UNIT( #64 )SOLID_ANGLE_UNIT(  )SI_UNIT( $, .STERADIAN. ) );
#49 = COORDINATED_UNIVERSAL_TIME_OFFSET( 1, 0, .AHEAD. );
#50 = PERSON( '', 'UNSPECIFIED', $, $, $, $ );
#51 = ORGANIZATION( 'UNSPECIFIED', 'UNSPECIFIED', 'UNSPECIFIED' );
#52 = APPROVAL_STATUS( 'approved' );
#53 = SECURITY_CLASSIFICATION_LEVEL( 'unclassified' );
#54 = MECHANICAL_CONTEXT( '', #27, 'mechanical' );
#55 = MANIFOLD_SOLID_BREP( '1', #70 );
#56 = AXIS2_PLACEMENT_3D( '', #71, #72, #73 );
#59 = LENGTH_MEASURE_WITH_UNIT( LENGTH_MEASURE( 1.00000000000000 ), #74 );
#62 = DIMENSIONAL_EXPONENTS( 1.00000000000000, 0.000000000000000, 0.000000000000000, 0.000000000000000, 0.000000000000000, 0.000000000000000, 0.000000000000000 );
#64 = DIMENSIONAL_EXPONENTS( 0.000000000000000, 0.000000000000000, 0.000000000000000, 0.000000000000000, 0.000000000000000, 0.000000000000000, 0.000000000000000 );
#70 = CLOSED_SHELL( '', ( #75, #76, #77, #78, #79, #80, #81, #82, #83 ) );
#71 = CARTESIAN_POINT( '', ( 0.000000000000000, 0.000000000000000, 0.000000000000000 ) );
#72 = DIRECTION( '', ( 0.000000000000000, 0.000000000000000, 1.00000000000000 ) );
#73 = DIRECTION( '', ( 1.00000000000000, 0.000000000000000, 0.000000000000000 ) );
#74 =  ( NAMED_UNIT( #62 )LENGTH_UNIT(  )SI_UNIT( .MILLI., .METRE. ) );
#75 = ADVANCED_FACE( '', ( #85, #86 ), #87, .T. );
#76 = ADVANCED_FACE( '', ( #88, #89 ), #90, .F. );
#77 = ADVANCED_FACE( '', ( #91, #92 ), #93, .F. );
#78 = ADVANCED_FACE( '', ( #94, #95 ), #96, .F. );
#79 = ADVANCED_FACE( '', ( #97, #98 ), #99, .F. );
#80 = ADVANCED_FACE( '', ( #100, #101 ), #102, .T. );
#81 = ADVANCED_FACE( '', ( #103, #104 ), #105, .T. );
#82 = ADVANCED_FACE( '', ( #106 ), #107, .F. );
#83 = ADVANCED_FACE( '', ( #108, #109 ), #110, .T. );
#85 = FACE_OUTER_BOUND( '', #111, .T. );
#86 = FACE_OUTER_BOUND( '', #112, .T. );
#87 = TOROIDAL_SURFACE( '', #113, 7.67638670372939, 1.00000000000000 );
#88 = FACE_OUTER_BOUND( '', #114, .T. );
#89 = FACE_BOUND( '', #115, .T. );
#90 = CONICAL_SURFACE( '', #116, 3.40000000000000, 1.02974425867665 );
#91 = FACE_BOUND( '', #117, .T. );
#92 = FACE_OUTER_BOUND( '', #118, .T. );
#93 = CONICAL_SURFACE( '', #119, 4.40000000000000, 0.785398163397448 );
#94 = FACE_OUTER_BOUND( '', #120, .T. );
#95 = FACE_OUTER_BOUND( '', #121, .T. );
#96 = CYLINDRICAL_SURFACE( '', #122, 3.40000000000000 );
#97 = FACE_BOUND( '', #123, .T. );
#98 = FACE_OUTER_BOUND( '', #124, .T. );
#99 = PLANE( '', #125 );
#100 = FACE_OUTER_BOUND( '', #126, .T. );
#101 = FACE_BOUND( '', #127, .T. );
#102 = CONICAL_SURFACE( '', #128, 8.67323789920220, 0.0793783145595736 );
#103 = FACE_OUTER_BOUND( '', #129, .T. );
#104 = FACE_BOUND( '', #130, .T. );
#105 = CONICAL_SURFACE( '', #131, 10.3500000000000, 0.00535709160984767 );
#106 = FACE_OUTER_BOUND( '', #132, .T. );
#107 = PLANE( '', #133 );
#108 = FACE_BOUND( '', #134, .T. );
#109 = FACE_OUTER_BOUND( '', #135, .T. );
#110 = CONICAL_SURFACE( '', #136, 10.4919644010202, 0.774683980177753 );
#111 = EDGE_LOOP( '', ( #137 ) );
#112 = EDGE_LOOP( '', ( #138 ) );
#113 = AXIS2_PLACEMENT_3D( '', #139, #140, #141 );
#114 = EDGE_LOOP( '', ( #142 ) );
#115 = VERTEX_LOOP( '', #143 );
#116 = AXIS2_PLACEMENT_3D( '', #144, #145, #146 );
#117 = EDGE_LOOP( '', ( #147 ) );
#118 = EDGE_LOOP( '', ( #148 ) );
#119 = AXIS2_PLACEMENT_3D( '', #149, #150, #151 );
#120 = EDGE_LOOP( '', ( #152 ) );
#121 = EDGE_LOOP( '', ( #153 ) );
#122 = AXIS2_PLACEMENT_3D( '', #154, #155, #156 );
#123 = EDGE_LOOP( '', ( #157 ) );
#124 = EDGE_LOOP( '', ( #158 ) );
#125 = AXIS2_PLACEMENT_3D( '', #159, #160, #161 );
#126 = EDGE_LOOP( '', ( #162 ) );
#127 = EDGE_LOOP( '', ( #163 ) );
#128 = AXIS2_PLACEMENT_3D( '', #164, #165, #166 );
#129 = EDGE_LOOP( '', ( #167 ) );
#130 = EDGE_LOOP( '', ( #168 ) );
#131 = AXIS2_PLACEMENT_3D( '', #169, #170, #171 );
#132 = EDGE_LOOP( '', ( #172 ) );
#133 = AXIS2_PLACEMENT_3D( '', #173, #174, #175 );
#134 = EDGE_LOOP( '', ( #176 ) );
#135 = EDGE_LOOP( '', ( #177 ) );
#136 = AXIS2_PLACEMENT_3D( '', #178, #179, #180 );
#137 = ORIENTED_EDGE( '', *, *, #181, .F. );
#138 = ORIENTED_EDGE( '', *, *, #182, .T. );
#139 = CARTESIAN_POINT( '', ( 0.000000000000000, 0.000000000000000, 1.00000000000000 ) );
#140 = DIRECTION( '', ( 0.000000000000000, 0.000000000000000, 1.00000000000000 ) );
#141 = DIRECTION( '', ( 1.00000000000000, 0.000000000000000, 0.000000000000000 ) );
#142 = ORIENTED_EDGE( '', *, *, #183, .F. );
#143 = VERTEX_POINT( '', #184 );
#144 = CARTESIAN_POINT( '', ( -2.35850604691339E-047, -3.85185988877447E-031, 30.0000000000000 ) );
#145 = DIRECTION( '', ( 0.000000000000000, 0.000000000000000, -1.00000000000000 ) );
#146 = DIRECTION( '', ( 0.000000000000000, -1.00000000000000, 0.000000000000000 ) );
#147 = ORIENTED_EDGE( '', *, *, #185, .F. );
#148 = ORIENTED_EDGE( '', *, *, #186, .F. );
#149 = CARTESIAN_POINT( '', ( -2.35850604691339E-047, -3.85185988877447E-031, 1.25081334425247E-014 ) );
#150 = DIRECTION( '', ( 0.000000000000000, 0.000000000000000, -1.00000000000000 ) );
#151 = DIRECTION( '', ( -1.00000000000000, 0.000000000000000, 0.000000000000000 ) );
#152 = ORIENTED_EDGE( '', *, *, #185, .T. );
#153 = ORIENTED_EDGE( '', *, *, #183, .T. );
#154 = CARTESIAN_POINT( '', ( -2.35850604691339E-047, -3.85185988877447E-031, 1.25085407526662E-014 ) );
#155 = DIRECTION( '', ( 0.000000000000000, 0.000000000000000, -1.00000000000000 ) );
#156 = DIRECTION( '', ( 0.000000000000000, 1.00000000000000, 0.000000000000000 ) );
#157 = ORIENTED_EDGE( '', *, *, #186, .T. );
#158 = ORIENTED_EDGE( '', *, *, #182, .F. );
#159 = CARTESIAN_POINT( '', ( 4.70027596589231E-016, 7.67638670372939, 1.25081334425247E-014 ) );
#160 = DIRECTION( '', ( 0.000000000000000, 0.000000000000000, 1.00000000000000 ) );
#161 = DIRECTION( '', ( 1.00000000000000, 0.000000000000000, 0.000000000000000 ) );
#162 = ORIENTED_EDGE( '', *, *, #187, .F. );
#163 = ORIENTED_EDGE( '', *, *, #181, .T. );
#164 = CARTESIAN_POINT( '', ( -2.35850604691339E-047, -3.85185988877447E-031, 0.920705018541940 ) );
#165 = DIRECTION( '', ( 0.000000000000000, 0.000000000000000, 1.00000000000000 ) );
#166 = DIRECTION( '', ( 1.00000000000000, 0.000000000000000, 0.000000000000000 ) );
#167 = ORIENTED_EDGE( '', *, *, #188, .F. );
#168 = ORIENTED_EDGE( '', *, *, #187, .T. );
#169 = CARTESIAN_POINT( '', ( -2.35850604691339E-047, -3.85185988877447E-031, 22.0000000000000 ) );
#170 = DIRECTION( '', ( 0.000000000000000, 0.000000000000000, 1.00000000000000 ) );
#171 = DIRECTION( '', ( 1.00000000000000, 0.000000000000000, 0.000000000000000 ) );
#172 = ORIENTED_EDGE( '', *, *, #189, .T. );
#173 = CARTESIAN_POINT( '', ( 5.52529436119632E-016, 9.02378849162452, 50.0000000000000 ) );
#174 = DIRECTION( '', ( 0.000000000000000, 0.000000000000000, -1.00000000000000 ) );
#175 = DIRECTION( '', ( -1.00000000000000, 0.000000000000000, 0.000000000000000 ) );
#176 = ORIENTED_EDGE( '', *, *, #189, .F. );
#177 = ORIENTED_EDGE( '', *, *, #188, .T. );
#178 = CARTESIAN_POINT( '', ( -2.35850604691339E-047, -3.85185988877447E-031, 48.5000215237714 ) );
#179 = DIRECTION( '', ( 0.000000000000000, 0.000000000000000, -1.00000000000000 ) );
#180 = DIRECTION( '', ( -1.00000000000000, 0.000000000000000, 0.000000000000000 ) );
#181 = EDGE_CURVE( '', #190, #190, #191, .T. );
#182 = EDGE_CURVE( '', #192, #192, #193, .T. );
#183 = EDGE_CURVE( '', #194, #194, #195, .T. );
#184 = CARTESIAN_POINT( '', ( -2.35850604691339E-047, -3.85185988877447E-031, 32.0429261046937 ) );
#185 = EDGE_CURVE( '', #196, #196, #197, .F. );
#186 = EDGE_CURVE( '', #198, #198, #199, .T. );
#187 = EDGE_CURVE( '', #200, #200, #201, .T. );
#188 = EDGE_CURVE( '', #202, #202, #203, .T. );
#189 = EDGE_CURVE( '', #204, #204, #205, .T. );
#190 = VERTEX_POINT( '', #206 );
#191 = CIRCLE( '', #207, 8.67323789920220 );
#192 = VERTEX_POINT( '', #208 );
#193 = CIRCLE( '', #209, 7.67638670372939 );
#194 = VERTEX_POINT( '', #210 );
#195 = CIRCLE( '', #211, 3.40000000000000 );
#196 = VERTEX_POINT( '', #212 );
#197 = CIRCLE( '', #213, 3.40000000000000 );
#198 = VERTEX_POINT( '', #214 );
#199 = CIRCLE( '', #215, 4.40000000000000 );
#200 = VERTEX_POINT( '', #216 );
#201 = CIRCLE( '', #217, 10.3500000000000 );
#202 = VERTEX_POINT( '', #218 );
#203 = CIRCLE( '', #219, 10.4919644010202 );
#204 = VERTEX_POINT( '', #220 );
#205 = CIRCLE( '', #221, 9.02378849162452 );
#206 = CARTESIAN_POINT( '', ( 8.67323789920220, -3.85185988877447E-031, 0.920705018541940 ) );
#207 = AXIS2_PLACEMENT_3D( '', #222, #223, #224 );
#208 = CARTESIAN_POINT( '', ( 7.67638670372939, -3.85185988877447E-031, 6.93889390390723E-015 ) );
#209 = AXIS2_PLACEMENT_3D( '', #225, #226, #227 );
#210 = CARTESIAN_POINT( '', ( -2.35850604691339E-047, -3.40000000000000, 30.0000000000000 ) );
#211 = AXIS2_PLACEMENT_3D( '', #228, #229, #230 );
#212 = CARTESIAN_POINT( '', ( 3.40000000000000, -3.85185988877447E-031, 1.00000000000001 ) );
#213 = AXIS2_PLACEMENT_3D( '', #231, #232, #233 );
#214 = CARTESIAN_POINT( '', ( 4.40000000000000, -3.85185988877447E-031, 1.25081334425247E-014 ) );
#215 = AXIS2_PLACEMENT_3D( '', #234, #235, #236 );
#216 = CARTESIAN_POINT( '', ( 10.3500000000000, -3.85185988877447E-031, 22.0000000000000 ) );
#217 = AXIS2_PLACEMENT_3D( '', #237, #238, #239 );
#218 = CARTESIAN_POINT( '', ( 10.4919644010202, -3.85185988877447E-031, 48.5000215237714 ) );
#219 = AXIS2_PLACEMENT_3D( '', #240, #241, #242 );
#220 = CARTESIAN_POINT( '', ( 9.02378849162452, -3.85185988877447E-031, 50.0000000000000 ) );
#221 = AXIS2_PLACEMENT_3D( '', #243, #244, #245 );
#222 = CARTESIAN_POINT( '', ( -2.35850604691339E-047, -3.85185988877447E-031, 0.920705018541940 ) );
#223 = DIRECTION( '', ( 0.000000000000000, 0.000000000000000, 1.00000000000000 ) );
#224 = DIRECTION( '', ( 1.00000000000000, 0.000000000000000, 0.000000000000000 ) );
#225 = CARTESIAN_POINT( '', ( -2.35850604691339E-047, -3.85185988877447E-031, 6.93889390390723E-015 ) );
#226 = DIRECTION( '', ( 0.000000000000000, 0.000000000000000, 1.00000000000000 ) );
#227 = DIRECTION( '', ( 1.00000000000000, 0.000000000000000, 0.000000000000000 ) );
#228 = CARTESIAN_POINT( '', ( -2.35850604691339E-047, -3.85185988877447E-031, 30.0000000000000 ) );
#229 = DIRECTION( '', ( 0.000000000000000, 0.000000000000000, 1.00000000000000 ) );
#230 = DIRECTION( '', ( 0.000000000000000, -1.00000000000000, 0.000000000000000 ) );
#231 = CARTESIAN_POINT( '', ( -2.35850604691339E-047, -3.85185988877447E-031, 1.00000000000001 ) );
#232 = DIRECTION( '', ( 0.000000000000000, 0.000000000000000, 1.00000000000000 ) );
#233 = DIRECTION( '', ( 1.00000000000000, 0.000000000000000, 0.000000000000000 ) );
#234 = CARTESIAN_POINT( '', ( -2.35850604691339E-047, -3.85185988877447E-031, 1.25081334425247E-014 ) );
#235 = DIRECTION( '', ( 0.000000000000000, 0.000000000000000, 1.00000000000000 ) );
#236 = DIRECTION( '', ( 1.00000000000000, 0.000000000000000, 0.000000000000000 ) );
#237 = CARTESIAN_POINT( '', ( -2.35850604691339E-047, -3.85185988877447E-031, 22.0000000000000 ) );
#238 = DIRECTION( '', ( 0.000000000000000, 0.000000000000000, 1.00000000000000 ) );
#239 = DIRECTION( '', ( 1.00000000000000, 0.000000000000000, 0.000000000000000 ) );
#240 = CARTESIAN_POINT( '', ( -2.35850604691339E-047, -3.85185988877447E-031, 48.5000215237714 ) );
#241 = DIRECTION( '', ( 0.000000000000000, 0.000000000000000, 1.00000000000000 ) );
#242 = DIRECTION( '', ( 1.00000000000000, 0.000000000000000, 0.000000000000000 ) );
#243 = CARTESIAN_POINT( '', ( -2.35850604691339E-047, -3.85185988877447E-031, 50.0000000000000 ) );
#244 = DIRECTION( '', ( 0.000000000000000, 0.000000000000000, 1.00000000000000 ) );
#245 = DIRECTION( '', ( 1.00000000000000, 0.000000000000000, 0.000000000000000 ) );
ENDSEC;
END-ISO-10303-21;
