ISO-10303-21;
HEADER;
FILE_DESCRIPTION( ( 'Unknown' ), '1' );
FILE_NAME( 'E:/98-Dis_3D_per_controllo/MC/6136034_MC28x85/6136034_MC28x85.stp', 'Unknown', ( 'Unknown' ), ( 'Unknown' ), 'PSStep 11.0', 'Unknown', '  ' );
FILE_SCHEMA( ( 'AUTOMOTIVE_DESIGN { 1 0 10303 214 1 1 1 1 }' ) );
ENDSEC;
DATA;
#1 = MECHANICAL_DESIGN_GEOMETRIC_PRESENTATION_REPRESENTATION( ' ', ( #10, #11, #12, #13, #14, #15, #16, #17, #18, #19 ), #6 );
#2 = PRODUCT_DEFINITION_CONTEXT( '', #20, 'design' );
#3 = APPLICATION_PROTOCOL_DEFINITION( 'INTERNATIONAL STANDARD', 'automotive_design', 2001, #20 );
#4 = PRODUCT_CATEGORY_RELATIONSHIP( 'NONE', 'NONE', #21, #22 );
#5 = SHAPE_DEFINITION_REPRESENTATION( #23, #24 );
#6 =  ( GEOMETRIC_REPRESENTATION_CONTEXT( 3 )GLOBAL_UNCERTAINTY_ASSIGNED_CONTEXT( ( #27 ) )GLOBAL_UNIT_ASSIGNED_CONTEXT( ( #29, #30, #31 ) )REPRESENTATION_CONTEXT( 'NONE', 'WORKSPACE' ) );
#10 = STYLED_ITEM( '', ( #33 ), #34 );
#11 = STYLED_ITEM( '', ( #35 ), #36 );
#12 = STYLED_ITEM( '', ( #37 ), #38 );
#13 = STYLED_ITEM( '', ( #39 ), #40 );
#14 = STYLED_ITEM( '', ( #41 ), #42 );
#15 = STYLED_ITEM( '', ( #43 ), #44 );
#16 = STYLED_ITEM( '', ( #45 ), #46 );
#17 = STYLED_ITEM( '', ( #47 ), #48 );
#18 = STYLED_ITEM( '', ( #49 ), #50 );
#19 = STYLED_ITEM( '', ( #51 ), #52 );
#20 = APPLICATION_CONTEXT( 'core data for automotive mechanical design processes' );
#21 = PRODUCT_CATEGORY( 'part', 'NONE' );
#22 = PRODUCT_RELATED_PRODUCT_CATEGORY( 'detail', ' ', ( #53 ) );
#23 = PRODUCT_DEFINITION_SHAPE( 'NONE', 'NONE', #54 );
#24 = ADVANCED_BREP_SHAPE_REPRESENTATION( '1', ( #55, #56 ), #6 );
#27 = UNCERTAINTY_MEASURE_WITH_UNIT( LENGTH_MEASURE( 0.00100000000000000 ), #29, '', '' );
#29 =  ( CONVERSION_BASED_UNIT( 'MILLIMETRE', #59 )LENGTH_UNIT(  )NAMED_UNIT( #62 ) );
#30 =  ( NAMED_UNIT( #64 )PLANE_ANGLE_UNIT(  )SI_UNIT( $, .RADIAN. ) );
#31 =  ( NAMED_UNIT( #64 )SI_UNIT( $, .STERADIAN. )SOLID_ANGLE_UNIT(  ) );
#33 = PRESENTATION_STYLE_ASSIGNMENT( ( #70 ) );
#34 = ADVANCED_FACE( '', ( #71, #72 ), #73, .F. );
#35 = PRESENTATION_STYLE_ASSIGNMENT( ( #74 ) );
#36 = ADVANCED_FACE( '', ( #75, #76 ), #77, .T. );
#37 = PRESENTATION_STYLE_ASSIGNMENT( ( #78 ) );
#38 = ADVANCED_FACE( '', ( #79, #80 ), #81, .F. );
#39 = PRESENTATION_STYLE_ASSIGNMENT( ( #82 ) );
#40 = ADVANCED_FACE( '', ( #83, #84 ), #85, .T. );
#41 = PRESENTATION_STYLE_ASSIGNMENT( ( #86 ) );
#42 = ADVANCED_FACE( '', ( #87, #88 ), #89, .T. );
#43 = PRESENTATION_STYLE_ASSIGNMENT( ( #90 ) );
#44 = ADVANCED_FACE( '', ( #91 ), #92, .T. );
#45 = PRESENTATION_STYLE_ASSIGNMENT( ( #93 ) );
#46 = ADVANCED_FACE( '', ( #94, #95 ), #96, .F. );
#47 = PRESENTATION_STYLE_ASSIGNMENT( ( #97 ) );
#48 = ADVANCED_FACE( '', ( #98, #99 ), #100, .T. );
#49 = PRESENTATION_STYLE_ASSIGNMENT( ( #101 ) );
#50 = ADVANCED_FACE( '', ( #102, #103 ), #104, .T. );
#51 = PRESENTATION_STYLE_ASSIGNMENT( ( #105 ) );
#52 = ADVANCED_FACE( '', ( #106, #107 ), #108, .T. );
#53 = PRODUCT( '1', '1', 'PART-1-DESC', ( #109 ) );
#54 = PRODUCT_DEFINITION( 'NONE', 'NONE', #110, #2 );
#55 = MANIFOLD_SOLID_BREP( '1', #111 );
#56 = AXIS2_PLACEMENT_3D( '', #112, #113, #114 );
#59 = LENGTH_MEASURE_WITH_UNIT( LENGTH_MEASURE( 1.00000000000000 ), #115 );
#62 = DIMENSIONAL_EXPONENTS( 1.00000000000000, 0.000000000000000, 0.000000000000000, 0.000000000000000, 0.000000000000000, 0.000000000000000, 0.000000000000000 );
#64 = DIMENSIONAL_EXPONENTS( 0.000000000000000, 0.000000000000000, 0.000000000000000, 0.000000000000000, 0.000000000000000, 0.000000000000000, 0.000000000000000 );
#70 = SURFACE_STYLE_USAGE( .BOTH., #116 );
#71 = FACE_OUTER_BOUND( '', #117, .T. );
#72 = FACE_OUTER_BOUND( '', #118, .T. );
#73 = CYLINDRICAL_SURFACE( '', #119, 3.32350000000000 );
#74 = SURFACE_STYLE_USAGE( .BOTH., #120 );
#75 = FACE_OUTER_BOUND( '', #121, .T. );
#76 = FACE_OUTER_BOUND( '', #122, .T. );
#77 = TOROIDAL_SURFACE( '', #123, 11.9856632659569, 2.00000000000000 );
#78 = SURFACE_STYLE_USAGE( .BOTH., #124 );
#79 = FACE_OUTER_BOUND( '', #125, .T. );
#80 = FACE_OUTER_BOUND( '', #126, .T. );
#81 = CYLINDRICAL_SURFACE( '', #127, 3.32350000000000 );
#82 = SURFACE_STYLE_USAGE( .BOTH., #128 );
#83 = FACE_BOUND( '', #129, .T. );
#84 = FACE_OUTER_BOUND( '', #130, .T. );
#85 = CONICAL_SURFACE( '', #131, 13.6500000000000, 0.0803819838897778 );
#86 = SURFACE_STYLE_USAGE( .BOTH., #132 );
#87 = FACE_OUTER_BOUND( '', #133, .T. );
#88 = FACE_BOUND( '', #134, .T. );
#89 = PLANE( '', #135 );
#90 = SURFACE_STYLE_USAGE( .BOTH., #136 );
#91 = FACE_OUTER_BOUND( '', #137, .T. );
#92 = PLANE( '', #138 );
#93 = SURFACE_STYLE_USAGE( .BOTH., #139 );
#94 = FACE_OUTER_BOUND( '', #140, .T. );
#95 = FACE_BOUND( '', #141, .T. );
#96 = CONICAL_SURFACE( '', #142, 3.32350000000000, 1.02974425867665 );
#97 = SURFACE_STYLE_USAGE( .BOTH., #143 );
#98 = FACE_OUTER_BOUND( '', #144, .T. );
#99 = FACE_BOUND( '', #145, .T. );
#100 = CONICAL_SURFACE( '', #146, 14.0000000000000, 0.00714273566941349 );
#101 = SURFACE_STYLE_USAGE( .BOTH., #147 );
#102 = FACE_OUTER_BOUND( '', #148, .T. );
#103 = FACE_OUTER_BOUND( '', #149, .T. );
#104 = TOROIDAL_SURFACE( '', #150, 9.82731620349102, 1.00000000000000 );
#105 = SURFACE_STYLE_USAGE( .BOTH., #151 );
#106 = FACE_OUTER_BOUND( '', #152, .T. );
#107 = FACE_OUTER_BOUND( '', #153, .T. );
#108 = TOROIDAL_SURFACE( '', #154, 4.32350000000000, 1.00000000000000 );
#109 = PRODUCT_CONTEXT( '', #20, 'mechanical' );
#110 = PRODUCT_DEFINITION_FORMATION_WITH_SPECIFIED_SOURCE( ' ', 'NONE', #53, .NOT_KNOWN. );
#111 = CLOSED_SHELL( '', ( #34, #36, #46, #52, #38, #50, #42, #44, #48, #40 ) );
#112 = CARTESIAN_POINT( '', ( 0.000000000000000, 0.000000000000000, 0.000000000000000 ) );
#113 = DIRECTION( '', ( 0.000000000000000, 0.000000000000000, 1.00000000000000 ) );
#114 = DIRECTION( '', ( 1.00000000000000, 0.000000000000000, 0.000000000000000 ) );
#115 =  ( LENGTH_UNIT(  )NAMED_UNIT( #62 )SI_UNIT( .MILLI., .METRE. ) );
#116 = SURFACE_SIDE_STYLE( '', ( #156 ) );
#117 = EDGE_LOOP( '', ( #157 ) );
#118 = EDGE_LOOP( '', ( #158 ) );
#119 = AXIS2_PLACEMENT_3D( '', #159, #160, #161 );
#120 = SURFACE_SIDE_STYLE( '', ( #162 ) );
#121 = EDGE_LOOP( '', ( #163 ) );
#122 = EDGE_LOOP( '', ( #164 ) );
#123 = AXIS2_PLACEMENT_3D( '', #165, #166, #167 );
#124 = SURFACE_SIDE_STYLE( '', ( #168 ) );
#125 = EDGE_LOOP( '', ( #169 ) );
#126 = EDGE_LOOP( '', ( #170 ) );
#127 = AXIS2_PLACEMENT_3D( '', #171, #172, #173 );
#128 = SURFACE_SIDE_STYLE( '', ( #174 ) );
#129 = EDGE_LOOP( '', ( #175 ) );
#130 = EDGE_LOOP( '', ( #176 ) );
#131 = AXIS2_PLACEMENT_3D( '', #177, #178, #179 );
#132 = SURFACE_SIDE_STYLE( '', ( #180 ) );
#133 = EDGE_LOOP( '', ( #181 ) );
#134 = EDGE_LOOP( '', ( #182 ) );
#135 = AXIS2_PLACEMENT_3D( '', #183, #184, #185 );
#136 = SURFACE_SIDE_STYLE( '', ( #186 ) );
#137 = EDGE_LOOP( '', ( #187 ) );
#138 = AXIS2_PLACEMENT_3D( '', #188, #189, #190 );
#139 = SURFACE_SIDE_STYLE( '', ( #191 ) );
#140 = EDGE_LOOP( '', ( #192 ) );
#141 = VERTEX_LOOP( '', #193 );
#142 = AXIS2_PLACEMENT_3D( '', #194, #195, #196 );
#143 = SURFACE_SIDE_STYLE( '', ( #197 ) );
#144 = EDGE_LOOP( '', ( #198 ) );
#145 = EDGE_LOOP( '', ( #199 ) );
#146 = AXIS2_PLACEMENT_3D( '', #200, #201, #202 );
#147 = SURFACE_SIDE_STYLE( '', ( #203 ) );
#148 = EDGE_LOOP( '', ( #204 ) );
#149 = EDGE_LOOP( '', ( #205 ) );
#150 = AXIS2_PLACEMENT_3D( '', #206, #207, #208 );
#151 = SURFACE_SIDE_STYLE( '', ( #209 ) );
#152 = EDGE_LOOP( '', ( #210 ) );
#153 = EDGE_LOOP( '', ( #211 ) );
#154 = AXIS2_PLACEMENT_3D( '', #212, #213, #214 );
#156 = SURFACE_STYLE_FILL_AREA( #215 );
#157 = ORIENTED_EDGE( '', *, *, #216, .T. );
#158 = ORIENTED_EDGE( '', *, *, #217, .T. );
#159 = CARTESIAN_POINT( '', ( 0.000000000000000, 0.000000000000000, -42.5000000000000 ) );
#160 = DIRECTION( '', ( -0.000000000000000, 0.000000000000000, -1.00000000000000 ) );
#161 = DIRECTION( '', ( 0.000000000000000, 1.00000000000000, 0.000000000000000 ) );
#162 = SURFACE_STYLE_FILL_AREA( #218 );
#163 = ORIENTED_EDGE( '', *, *, #219, .F. );
#164 = ORIENTED_EDGE( '', *, *, #220, .F. );
#165 = CARTESIAN_POINT( '', ( 0.000000000000000, 0.000000000000000, 40.5000000000000 ) );
#166 = DIRECTION( '', ( 0.000000000000000, 0.000000000000000, 1.00000000000000 ) );
#167 = DIRECTION( '', ( 1.00000000000000, 0.000000000000000, 0.000000000000000 ) );
#168 = SURFACE_STYLE_FILL_AREA( #221 );
#169 = ORIENTED_EDGE( '', *, *, #222, .T. );
#170 = ORIENTED_EDGE( '', *, *, #217, .F. );
#171 = CARTESIAN_POINT( '', ( 0.000000000000000, 0.000000000000000, -42.5000000000000 ) );
#172 = DIRECTION( '', ( -0.000000000000000, 0.000000000000000, -1.00000000000000 ) );
#173 = DIRECTION( '', ( 0.000000000000000, 1.00000000000000, 0.000000000000000 ) );
#174 = SURFACE_STYLE_FILL_AREA( #223 );
#175 = ORIENTED_EDGE( '', *, *, #224, .T. );
#176 = ORIENTED_EDGE( '', *, *, #225, .F. );
#177 = CARTESIAN_POINT( '', ( 0.000000000000000, 0.000000000000000, -6.50000000000000 ) );
#178 = DIRECTION( '', ( -0.000000000000000, -0.000000000000000, 1.00000000000000 ) );
#179 = DIRECTION( '', ( 1.00000000000000, 0.000000000000000, 0.000000000000000 ) );
#180 = SURFACE_STYLE_FILL_AREA( #226 );
#181 = ORIENTED_EDGE( '', *, *, #227, .T. );
#182 = ORIENTED_EDGE( '', *, *, #228, .T. );
#183 = CARTESIAN_POINT( '', ( 10.7500000000000, 0.000000000000000, -42.5000000000000 ) );
#184 = DIRECTION( '', ( 0.000000000000000, 0.000000000000000, -1.00000000000000 ) );
#185 = DIRECTION( '', ( -1.00000000000000, 0.000000000000000, 0.000000000000000 ) );
#186 = SURFACE_STYLE_FILL_AREA( #229 );
#187 = ORIENTED_EDGE( '', *, *, #220, .T. );
#188 = CARTESIAN_POINT( '', ( 0.000000000000000, 0.000000000000000, 42.5000000000000 ) );
#189 = DIRECTION( '', ( 0.000000000000000, 0.000000000000000, 1.00000000000000 ) );
#190 = DIRECTION( '', ( 1.00000000000000, 0.000000000000000, 0.000000000000000 ) );
#191 = SURFACE_STYLE_FILL_AREA( #230 );
#192 = ORIENTED_EDGE( '', *, *, #216, .F. );
#193 = VERTEX_POINT( '', #231 );
#194 = CARTESIAN_POINT( '', ( 0.000000000000000, 0.000000000000000, 7.50000000000000 ) );
#195 = DIRECTION( '', ( 0.000000000000000, -0.000000000000000, -1.00000000000000 ) );
#196 = DIRECTION( '', ( 0.000000000000000, -1.00000000000000, 0.000000000000000 ) );
#197 = SURFACE_STYLE_FILL_AREA( #232 );
#198 = ORIENTED_EDGE( '', *, *, #219, .T. );
#199 = ORIENTED_EDGE( '', *, *, #225, .T. );
#200 = CARTESIAN_POINT( '', ( 0.000000000000000, 0.000000000000000, 42.5000000000000 ) );
#201 = DIRECTION( '', ( -0.000000000000000, -0.000000000000000, 1.00000000000000 ) );
#202 = DIRECTION( '', ( 1.00000000000000, 0.000000000000000, 0.000000000000000 ) );
#203 = SURFACE_STYLE_FILL_AREA( #233 );
#204 = ORIENTED_EDGE( '', *, *, #227, .F. );
#205 = ORIENTED_EDGE( '', *, *, #224, .F. );
#206 = CARTESIAN_POINT( '', ( 0.000000000000000, 0.000000000000000, -41.5000000000000 ) );
#207 = DIRECTION( '', ( 0.000000000000000, 0.000000000000000, -1.00000000000000 ) );
#208 = DIRECTION( '', ( -1.00000000000000, 0.000000000000000, 0.000000000000000 ) );
#209 = SURFACE_STYLE_FILL_AREA( #234 );
#210 = ORIENTED_EDGE( '', *, *, #222, .F. );
#211 = ORIENTED_EDGE( '', *, *, #228, .F. );
#212 = CARTESIAN_POINT( '', ( 0.000000000000000, 0.000000000000000, -41.5000000000000 ) );
#213 = DIRECTION( '', ( 0.000000000000000, 0.000000000000000, -1.00000000000000 ) );
#214 = DIRECTION( '', ( -1.00000000000000, 0.000000000000000, 0.000000000000000 ) );
#215 = FILL_AREA_STYLE( '', ( #235 ) );
#216 = EDGE_CURVE( '', #236, #236, #237, .T. );
#217 = EDGE_CURVE( '', #238, #238, #239, .T. );
#218 = FILL_AREA_STYLE( '', ( #240 ) );
#219 = EDGE_CURVE( '', #241, #241, #242, .T. );
#220 = EDGE_CURVE( '', #243, #243, #244, .T. );
#221 = FILL_AREA_STYLE( '', ( #245 ) );
#222 = EDGE_CURVE( '', #246, #246, #247, .T. );
#223 = FILL_AREA_STYLE( '', ( #248 ) );
#224 = EDGE_CURVE( '', #249, #249, #250, .F. );
#225 = EDGE_CURVE( '', #251, #251, #252, .T. );
#226 = FILL_AREA_STYLE( '', ( #253 ) );
#227 = EDGE_CURVE( '', #254, #254, #255, .T. );
#228 = EDGE_CURVE( '', #256, #256, #257, .F. );
#229 = FILL_AREA_STYLE( '', ( #258 ) );
#230 = FILL_AREA_STYLE( '', ( #259 ) );
#231 = CARTESIAN_POINT( '', ( 0.000000000000000, 0.000000000000000, 9.49696026733811 ) );
#232 = FILL_AREA_STYLE( '', ( #260 ) );
#233 = FILL_AREA_STYLE( '', ( #261 ) );
#234 = FILL_AREA_STYLE( '', ( #262 ) );
#235 = FILL_AREA_STYLE_COLOUR( '', #263 );
#236 = VERTEX_POINT( '', #264 );
#237 = CIRCLE( '', #265, 3.32350000000000 );
#238 = VERTEX_POINT( '', #266 );
#239 = CIRCLE( '', #267, 3.32350000000000 );
#240 = FILL_AREA_STYLE_COLOUR( '', #268 );
#241 = VERTEX_POINT( '', #269 );
#242 = CIRCLE( '', #270, 13.9856122475009 );
#243 = VERTEX_POINT( '', #271 );
#244 = CIRCLE( '', #272, 11.9856632659569 );
#245 = FILL_AREA_STYLE_COLOUR( '', #273 );
#246 = VERTEX_POINT( '', #274 );
#247 = CIRCLE( '', #275, 3.32350000000000 );
#248 = FILL_AREA_STYLE_COLOUR( '', #276 );
#249 = VERTEX_POINT( '', #277 );
#250 = CIRCLE( '', #278, 10.8240873109462 );
#251 = VERTEX_POINT( '', #279 );
#252 = CIRCLE( '', #280, 13.6500000000000 );
#253 = FILL_AREA_STYLE_COLOUR( '', #281 );
#254 = VERTEX_POINT( '', #282 );
#255 = CIRCLE( '', #283, 9.82731620349102 );
#256 = VERTEX_POINT( '', #284 );
#257 = CIRCLE( '', #285, 4.32350000000000 );
#258 = FILL_AREA_STYLE_COLOUR( '', #286 );
#259 = FILL_AREA_STYLE_COLOUR( '', #287 );
#260 = FILL_AREA_STYLE_COLOUR( '', #288 );
#261 = FILL_AREA_STYLE_COLOUR( '', #289 );
#262 = FILL_AREA_STYLE_COLOUR( '', #290 );
#263 = COLOUR_RGB( '', 0.200000002980232, 0.200000002980232, 0.200000002980232 );
#264 = CARTESIAN_POINT( '', ( 0.000000000000000, -3.32350000000000, 7.50000000000000 ) );
#265 = AXIS2_PLACEMENT_3D( '', #291, #292, #293 );
#266 = CARTESIAN_POINT( '', ( 0.000000000000000, 3.32350000000000, -2.50000000000000 ) );
#267 = AXIS2_PLACEMENT_3D( '', #294, #295, #296 );
#268 = COLOUR_RGB( '', 0.200000002980232, 0.200000002980232, 0.200000002980232 );
#269 = CARTESIAN_POINT( '', ( -13.9856122475009, 0.000000000000000, 40.4857146501318 ) );
#270 = AXIS2_PLACEMENT_3D( '', #297, #298, #299 );
#271 = CARTESIAN_POINT( '', ( 11.9856632659569, 0.000000000000000, 42.5000000000000 ) );
#272 = AXIS2_PLACEMENT_3D( '', #300, #301, #302 );
#273 = COLOUR_RGB( '', 0.752941191196442, 0.752941191196442, 0.752941191196442 );
#274 = CARTESIAN_POINT( '', ( -3.32350000000000, 0.000000000000000, -41.5000000000000 ) );
#275 = AXIS2_PLACEMENT_3D( '', #303, #304, #305 );
#276 = COLOUR_RGB( '', 0.200000002980232, 0.200000002980232, 0.200000002980232 );
#277 = CARTESIAN_POINT( '', ( -10.8240873109462, 0.000000000000000, -41.5802954503228 ) );
#278 = AXIS2_PLACEMENT_3D( '', #306, #307, #308 );
#279 = CARTESIAN_POINT( '', ( 13.6500000000000, 0.000000000000000, -6.50000000000000 ) );
#280 = AXIS2_PLACEMENT_3D( '', #309, #310, #311 );
#281 = COLOUR_RGB( '', 0.200000002980232, 0.200000002980232, 0.200000002980232 );
#282 = CARTESIAN_POINT( '', ( -9.82731620349102, 0.000000000000000, -42.5000000000000 ) );
#283 = AXIS2_PLACEMENT_3D( '', #312, #313, #314 );
#284 = CARTESIAN_POINT( '', ( -4.32350000000000, 0.000000000000000, -42.5000000000000 ) );
#285 = AXIS2_PLACEMENT_3D( '', #315, #316, #317 );
#286 = COLOUR_RGB( '', 0.200000002980232, 0.200000002980232, 0.200000002980232 );
#287 = COLOUR_RGB( '', 0.200000002980232, 0.200000002980232, 0.200000002980232 );
#288 = COLOUR_RGB( '', 0.200000002980232, 0.200000002980232, 0.200000002980232 );
#289 = COLOUR_RGB( '', 0.200000002980232, 0.200000002980232, 0.200000002980232 );
#290 = COLOUR_RGB( '', 0.200000002980232, 0.200000002980232, 0.200000002980232 );
#291 = CARTESIAN_POINT( '', ( 0.000000000000000, 0.000000000000000, 7.50000000000000 ) );
#292 = DIRECTION( '', ( 0.000000000000000, 0.000000000000000, 1.00000000000000 ) );
#293 = DIRECTION( '', ( 0.000000000000000, -1.00000000000000, 0.000000000000000 ) );
#294 = CARTESIAN_POINT( '', ( 0.000000000000000, 0.000000000000000, -2.50000000000000 ) );
#295 = DIRECTION( '', ( 0.000000000000000, 0.000000000000000, -1.00000000000000 ) );
#296 = DIRECTION( '', ( 0.000000000000000, 1.00000000000000, 0.000000000000000 ) );
#297 = CARTESIAN_POINT( '', ( 0.000000000000000, 0.000000000000000, 40.4857146501318 ) );
#298 = DIRECTION( '', ( 0.000000000000000, 0.000000000000000, -1.00000000000000 ) );
#299 = DIRECTION( '', ( -1.00000000000000, 0.000000000000000, 0.000000000000000 ) );
#300 = CARTESIAN_POINT( '', ( 0.000000000000000, 0.000000000000000, 42.5000000000000 ) );
#301 = DIRECTION( '', ( 0.000000000000000, 0.000000000000000, 1.00000000000000 ) );
#302 = DIRECTION( '', ( 1.00000000000000, 0.000000000000000, 0.000000000000000 ) );
#303 = CARTESIAN_POINT( '', ( 0.000000000000000, 0.000000000000000, -41.5000000000000 ) );
#304 = DIRECTION( '', ( 0.000000000000000, 0.000000000000000, -1.00000000000000 ) );
#305 = DIRECTION( '', ( -1.00000000000000, 0.000000000000000, 0.000000000000000 ) );
#306 = CARTESIAN_POINT( '', ( 0.000000000000000, 0.000000000000000, -41.5802954503228 ) );
#307 = DIRECTION( '', ( 0.000000000000000, 0.000000000000000, -1.00000000000000 ) );
#308 = DIRECTION( '', ( -1.00000000000000, 0.000000000000000, 0.000000000000000 ) );
#309 = CARTESIAN_POINT( '', ( 0.000000000000000, 0.000000000000000, -6.50000000000000 ) );
#310 = DIRECTION( '', ( 0.000000000000000, 0.000000000000000, 1.00000000000000 ) );
#311 = DIRECTION( '', ( 1.00000000000000, 0.000000000000000, 0.000000000000000 ) );
#312 = CARTESIAN_POINT( '', ( 0.000000000000000, 0.000000000000000, -42.5000000000000 ) );
#313 = DIRECTION( '', ( 0.000000000000000, 0.000000000000000, -1.00000000000000 ) );
#314 = DIRECTION( '', ( -1.00000000000000, 0.000000000000000, 0.000000000000000 ) );
#315 = CARTESIAN_POINT( '', ( 0.000000000000000, 0.000000000000000, -42.5000000000000 ) );
#316 = DIRECTION( '', ( 0.000000000000000, 0.000000000000000, -1.00000000000000 ) );
#317 = DIRECTION( '', ( -1.00000000000000, 0.000000000000000, 0.000000000000000 ) );
ENDSEC;
END-ISO-10303-21;
