ISO-10303-21;
HEADER;
FILE_DESCRIPTION( ( 'Unknown' ), '1' );
FILE_NAME( '//SBS2003/HD_Usb/Disegni/10_GAMM_CD/2- Gamm_STEP/03 - MANOPOLE/03_02.2-MCA/6137005_MCA17x40.stp', 'Unknown', ( 'Unknown' ), ( 'Unknown' ), 'PSStep 11.0', 'Unknown', '  ' );
FILE_SCHEMA( ( 'AUTOMOTIVE_DESIGN { 1 0 10303 214 1 1 1 1 }' ) );
ENDSEC;
DATA;
#1 = MECHANICAL_DESIGN_GEOMETRIC_PRESENTATION_REPRESENTATION( ' ', ( #10, #11, #12, #13, #14, #15, #16, #17, #18, #19, #20, #21, #22, #23, #24 ), #6 );
#2 = PRODUCT_DEFINITION_CONTEXT( '', #25, 'design' );
#3 = APPLICATION_PROTOCOL_DEFINITION( 'INTERNATIONAL STANDARD', 'automotive_design', 2001, #25 );
#4 = PRODUCT_CATEGORY_RELATIONSHIP( 'NONE', 'NONE', #26, #27 );
#5 = SHAPE_DEFINITION_REPRESENTATION( #28, #29 );
#6 =  ( GEOMETRIC_REPRESENTATION_CONTEXT( 3 )GLOBAL_UNCERTAINTY_ASSIGNED_CONTEXT( ( #32 ) )GLOBAL_UNIT_ASSIGNED_CONTEXT( ( #34, #35, #36 ) )REPRESENTATION_CONTEXT( 'NONE', 'WORKSPACE' ) );
#10 = STYLED_ITEM( '', ( #38 ), #39 );
#11 = STYLED_ITEM( '', ( #40 ), #41 );
#12 = STYLED_ITEM( '', ( #42 ), #43 );
#13 = STYLED_ITEM( '', ( #44 ), #45 );
#14 = STYLED_ITEM( '', ( #46 ), #47 );
#15 = STYLED_ITEM( '', ( #48 ), #49 );
#16 = STYLED_ITEM( '', ( #50 ), #51 );
#17 = STYLED_ITEM( '', ( #52 ), #53 );
#18 = STYLED_ITEM( '', ( #54 ), #55 );
#19 = STYLED_ITEM( '', ( #56 ), #57 );
#20 = STYLED_ITEM( '', ( #58 ), #59 );
#21 = STYLED_ITEM( '', ( #60 ), #61 );
#22 = STYLED_ITEM( '', ( #62 ), #63 );
#23 = STYLED_ITEM( '', ( #64 ), #65 );
#24 = STYLED_ITEM( '', ( #66 ), #67 );
#25 = APPLICATION_CONTEXT( 'core data for automotive mechanical design processes' );
#26 = PRODUCT_CATEGORY( 'part', 'NONE' );
#27 = PRODUCT_RELATED_PRODUCT_CATEGORY( 'detail', ' ', ( #68 ) );
#28 = PRODUCT_DEFINITION_SHAPE( 'NONE', 'NONE', #69 );
#29 = ADVANCED_BREP_SHAPE_REPRESENTATION( '6137005', ( #70, #71 ), #6 );
#32 = UNCERTAINTY_MEASURE_WITH_UNIT( LENGTH_MEASURE( 0.00100000000000000 ), #34, '', '' );
#34 =  ( CONVERSION_BASED_UNIT( 'MILLIMETRE', #74 )LENGTH_UNIT(  )NAMED_UNIT( #77 ) );
#35 =  ( NAMED_UNIT( #79 )PLANE_ANGLE_UNIT(  )SI_UNIT( $, .RADIAN. ) );
#36 =  ( NAMED_UNIT( #79 )SI_UNIT( $, .STERADIAN. )SOLID_ANGLE_UNIT(  ) );
#38 = PRESENTATION_STYLE_ASSIGNMENT( ( #85 ) );
#39 = ADVANCED_FACE( '', ( #86, #87 ), #88, .T. );
#40 = PRESENTATION_STYLE_ASSIGNMENT( ( #89 ) );
#41 = ADVANCED_FACE( '', ( #90, #91 ), #92, .F. );
#42 = PRESENTATION_STYLE_ASSIGNMENT( ( #93 ) );
#43 = ADVANCED_FACE( '', ( #94, #95 ), #96, .T. );
#44 = PRESENTATION_STYLE_ASSIGNMENT( ( #97 ) );
#45 = ADVANCED_FACE( '', ( #98 ), #99, .F. );
#46 = PRESENTATION_STYLE_ASSIGNMENT( ( #100 ) );
#47 = ADVANCED_FACE( '', ( #101, #102 ), #103, .F. );
#48 = PRESENTATION_STYLE_ASSIGNMENT( ( #104 ) );
#49 = ADVANCED_FACE( '', ( #105, #106 ), #107, .F. );
#50 = PRESENTATION_STYLE_ASSIGNMENT( ( #108 ) );
#51 = ADVANCED_FACE( '', ( #109, #110 ), #111, .T. );
#52 = PRESENTATION_STYLE_ASSIGNMENT( ( #112 ) );
#53 = ADVANCED_FACE( '', ( #113, #114 ), #115, .T. );
#54 = PRESENTATION_STYLE_ASSIGNMENT( ( #116 ) );
#55 = ADVANCED_FACE( '', ( #117 ), #118, .F. );
#56 = PRESENTATION_STYLE_ASSIGNMENT( ( #119 ) );
#57 = ADVANCED_FACE( '', ( #120, #121 ), #122, .F. );
#58 = PRESENTATION_STYLE_ASSIGNMENT( ( #123 ) );
#59 = ADVANCED_FACE( '', ( #124, #125 ), #126, .T. );
#60 = PRESENTATION_STYLE_ASSIGNMENT( ( #127 ) );
#61 = ADVANCED_FACE( '', ( #128, #129 ), #130, .T. );
#62 = PRESENTATION_STYLE_ASSIGNMENT( ( #131 ) );
#63 = ADVANCED_FACE( '', ( #132, #133 ), #134, .T. );
#64 = PRESENTATION_STYLE_ASSIGNMENT( ( #135 ) );
#65 = ADVANCED_FACE( '', ( #136, #137 ), #138, .T. );
#66 = PRESENTATION_STYLE_ASSIGNMENT( ( #139 ) );
#67 = ADVANCED_FACE( '', ( #140, #141 ), #142, .T. );
#68 = PRODUCT( '6137005', '6137005', 'PART-6137005-DESC', ( #143 ) );
#69 = PRODUCT_DEFINITION( 'NONE', 'NONE', #144, #2 );
#70 = BREP_WITH_VOIDS( '6137005', #145, ( #146 ) );
#71 = AXIS2_PLACEMENT_3D( '', #147, #148, #149 );
#74 = LENGTH_MEASURE_WITH_UNIT( LENGTH_MEASURE( 1.00000000000000 ), #150 );
#77 = DIMENSIONAL_EXPONENTS( 1.00000000000000, 0.000000000000000, 0.000000000000000, 0.000000000000000, 0.000000000000000, 0.000000000000000, 0.000000000000000 );
#79 = DIMENSIONAL_EXPONENTS( 0.000000000000000, 0.000000000000000, 0.000000000000000, 0.000000000000000, 0.000000000000000, 0.000000000000000, 0.000000000000000 );
#85 = SURFACE_STYLE_USAGE( .BOTH., #151 );
#86 = FACE_BOUND( '', #152, .T. );
#87 = FACE_OUTER_BOUND( '', #153, .T. );
#88 = PLANE( '', #154 );
#89 = SURFACE_STYLE_USAGE( .BOTH., #155 );
#90 = FACE_BOUND( '', #156, .T. );
#91 = FACE_OUTER_BOUND( '', #157, .T. );
#92 = PLANE( '', #158 );
#93 = SURFACE_STYLE_USAGE( .BOTH., #159 );
#94 = FACE_BOUND( '', #160, .T. );
#95 = FACE_OUTER_BOUND( '', #161, .T. );
#96 = CONICAL_SURFACE( '', #162, 5.75000000000000, 0.147492519787998 );
#97 = SURFACE_STYLE_USAGE( .BOTH., #163 );
#98 = FACE_OUTER_BOUND( '', #164, .T. );
#99 = PLANE( '', #165 );
#100 = SURFACE_STYLE_USAGE( .BOTH., #166 );
#101 = FACE_OUTER_BOUND( '', #167, .T. );
#102 = FACE_OUTER_BOUND( '', #168, .T. );
#103 = CYLINDRICAL_SURFACE( '', #169, 2.50000000000000 );
#104 = SURFACE_STYLE_USAGE( .BOTH., #170 );
#105 = FACE_OUTER_BOUND( '', #171, .T. );
#106 = FACE_OUTER_BOUND( '', #172, .T. );
#107 = CYLINDRICAL_SURFACE( '', #173, 2.75000000000000 );
#108 = SURFACE_STYLE_USAGE( .BOTH., #174 );
#109 = FACE_OUTER_BOUND( '', #175, .T. );
#110 = FACE_OUTER_BOUND( '', #176, .T. );
#111 = TOROIDAL_SURFACE( '', #177, 3.25000000000000, 0.500000000000000 );
#112 = SURFACE_STYLE_USAGE( .BOTH., #178 );
#113 = FACE_OUTER_BOUND( '', #179, .T. );
#114 = FACE_OUTER_BOUND( '', #180, .T. );
#115 = TOROIDAL_SURFACE( '', #181, 7.49331111135802, 1.00000000000000 );
#116 = SURFACE_STYLE_USAGE( .BOTH., #182 );
#117 = FACE_OUTER_BOUND( '', #183, .T. );
#118 = PLANE( '', #184 );
#119 = SURFACE_STYLE_USAGE( .BOTH., #185 );
#120 = FACE_OUTER_BOUND( '', #186, .T. );
#121 = FACE_OUTER_BOUND( '', #187, .T. );
#122 = CYLINDRICAL_SURFACE( '', #188, 5.00000000000000 );
#123 = SURFACE_STYLE_USAGE( .BOTH., #189 );
#124 = FACE_OUTER_BOUND( '', #190, .T. );
#125 = FACE_OUTER_BOUND( '', #191, .T. );
#126 = TOROIDAL_SURFACE( '', #192, 3.00000000000000, 0.500000000000000 );
#127 = SURFACE_STYLE_USAGE( .BOTH., #193 );
#128 = FACE_OUTER_BOUND( '', #194, .T. );
#129 = FACE_OUTER_BOUND( '', #195, .T. );
#130 = TOROIDAL_SURFACE( '', #196, 5.31879746778840, 0.500000000000000 );
#131 = SURFACE_STYLE_USAGE( .BOTH., #197 );
#132 = FACE_OUTER_BOUND( '', #198, .T. );
#133 = FACE_BOUND( '', #199, .T. );
#134 = CONICAL_SURFACE( '', #200, 4.50000000000000, 0.785398163397448 );
#135 = SURFACE_STYLE_USAGE( .BOTH., #201 );
#136 = FACE_BOUND( '', #202, .T. );
#137 = FACE_OUTER_BOUND( '', #203, .T. );
#138 = PLANE( '', #204 );
#139 = SURFACE_STYLE_USAGE( .BOTH., #205 );
#140 = FACE_OUTER_BOUND( '', #206, .T. );
#141 = FACE_BOUND( '', #207, .T. );
#142 = CONICAL_SURFACE( '', #208, 8.35000000000000, 0.00666656790386811 );
#143 = PRODUCT_CONTEXT( '', #25, 'mechanical' );
#144 = PRODUCT_DEFINITION_FORMATION_WITH_SPECIFIED_SOURCE( ' ', 'NONE', #68, .NOT_KNOWN. );
#145 = CLOSED_SHELL( '', ( #39, #51, #45, #47, #59, #41, #43, #49, #53, #55, #67, #61 ) );
#146 = ORIENTED_CLOSED_SHELL( '', *, #209, .T. );
#147 = CARTESIAN_POINT( '', ( 0.000000000000000, 0.000000000000000, 0.000000000000000 ) );
#148 = DIRECTION( '', ( 0.000000000000000, 0.000000000000000, 1.00000000000000 ) );
#149 = DIRECTION( '', ( 1.00000000000000, 0.000000000000000, 0.000000000000000 ) );
#150 =  ( LENGTH_UNIT(  )NAMED_UNIT( #77 )SI_UNIT( .MILLI., .METRE. ) );
#151 = SURFACE_SIDE_STYLE( '', ( #211 ) );
#152 = EDGE_LOOP( '', ( #212 ) );
#153 = EDGE_LOOP( '', ( #213 ) );
#154 = AXIS2_PLACEMENT_3D( '', #214, #215, #216 );
#155 = SURFACE_SIDE_STYLE( '', ( #217 ) );
#156 = EDGE_LOOP( '', ( #218 ) );
#157 = EDGE_LOOP( '', ( #219 ) );
#158 = AXIS2_PLACEMENT_3D( '', #220, #221, #222 );
#159 = SURFACE_SIDE_STYLE( '', ( #223 ) );
#160 = EDGE_LOOP( '', ( #224 ) );
#161 = EDGE_LOOP( '', ( #225 ) );
#162 = AXIS2_PLACEMENT_3D( '', #226, #227, #228 );
#163 = SURFACE_SIDE_STYLE( '', ( #229 ) );
#164 = EDGE_LOOP( '', ( #230 ) );
#165 = AXIS2_PLACEMENT_3D( '', #231, #232, #233 );
#166 = SURFACE_SIDE_STYLE( '', ( #234 ) );
#167 = EDGE_LOOP( '', ( #235 ) );
#168 = EDGE_LOOP( '', ( #236 ) );
#169 = AXIS2_PLACEMENT_3D( '', #237, #238, #239 );
#170 = SURFACE_SIDE_STYLE( '', ( #240 ) );
#171 = EDGE_LOOP( '', ( #241 ) );
#172 = EDGE_LOOP( '', ( #242 ) );
#173 = AXIS2_PLACEMENT_3D( '', #243, #244, #245 );
#174 = SURFACE_SIDE_STYLE( '', ( #246 ) );
#175 = EDGE_LOOP( '', ( #247 ) );
#176 = EDGE_LOOP( '', ( #248 ) );
#177 = AXIS2_PLACEMENT_3D( '', #249, #250, #251 );
#178 = SURFACE_SIDE_STYLE( '', ( #252 ) );
#179 = EDGE_LOOP( '', ( #253 ) );
#180 = EDGE_LOOP( '', ( #254 ) );
#181 = AXIS2_PLACEMENT_3D( '', #255, #256, #257 );
#182 = SURFACE_SIDE_STYLE( '', ( #258 ) );
#183 = EDGE_LOOP( '', ( #259 ) );
#184 = AXIS2_PLACEMENT_3D( '', #260, #261, #262 );
#185 = SURFACE_SIDE_STYLE( '', ( #263 ) );
#186 = EDGE_LOOP( '', ( #264 ) );
#187 = EDGE_LOOP( '', ( #265 ) );
#188 = AXIS2_PLACEMENT_3D( '', #266, #267, #268 );
#189 = SURFACE_SIDE_STYLE( '', ( #269 ) );
#190 = EDGE_LOOP( '', ( #270 ) );
#191 = EDGE_LOOP( '', ( #271 ) );
#192 = AXIS2_PLACEMENT_3D( '', #272, #273, #274 );
#193 = SURFACE_SIDE_STYLE( '', ( #275 ) );
#194 = EDGE_LOOP( '', ( #276 ) );
#195 = EDGE_LOOP( '', ( #277 ) );
#196 = AXIS2_PLACEMENT_3D( '', #278, #279, #280 );
#197 = SURFACE_SIDE_STYLE( '', ( #281 ) );
#198 = EDGE_LOOP( '', ( #282 ) );
#199 = EDGE_LOOP( '', ( #283 ) );
#200 = AXIS2_PLACEMENT_3D( '', #284, #285, #286 );
#201 = SURFACE_SIDE_STYLE( '', ( #287 ) );
#202 = EDGE_LOOP( '', ( #288 ) );
#203 = EDGE_LOOP( '', ( #289 ) );
#204 = AXIS2_PLACEMENT_3D( '', #290, #291, #292 );
#205 = SURFACE_SIDE_STYLE( '', ( #293 ) );
#206 = EDGE_LOOP( '', ( #294 ) );
#207 = EDGE_LOOP( '', ( #295 ) );
#208 = AXIS2_PLACEMENT_3D( '', #296, #297, #298 );
#209 = CLOSED_SHELL( '', ( #57, #63, #65 ) );
#211 = SURFACE_STYLE_FILL_AREA( #299 );
#212 = ORIENTED_EDGE( '', *, *, #300, .F. );
#213 = ORIENTED_EDGE( '', *, *, #301, .T. );
#214 = CARTESIAN_POINT( '', ( 2.75000000000000, 0.000000000000000, 6.00000000000000 ) );
#215 = DIRECTION( '', ( 0.000000000000000, 0.000000000000000, 1.00000000000000 ) );
#216 = DIRECTION( '', ( 1.00000000000000, 0.000000000000000, 0.000000000000000 ) );
#217 = SURFACE_STYLE_FILL_AREA( #302 );
#218 = ORIENTED_EDGE( '', *, *, #303, .T. );
#219 = ORIENTED_EDGE( '', *, *, #304, .T. );
#220 = CARTESIAN_POINT( '', ( 4.98105542804174E-015, 0.000000000000000, 0.000000000000000 ) );
#221 = DIRECTION( '', ( 0.000000000000000, 0.000000000000000, 1.00000000000000 ) );
#222 = DIRECTION( '', ( 1.00000000000000, 0.000000000000000, 0.000000000000000 ) );
#223 = SURFACE_STYLE_FILL_AREA( #305 );
#224 = ORIENTED_EDGE( '', *, *, #306, .T. );
#225 = ORIENTED_EDGE( '', *, *, #307, .F. );
#226 = CARTESIAN_POINT( '', ( 0.000000000000000, 0.000000000000000, 0.000000000000000 ) );
#227 = DIRECTION( '', ( -0.000000000000000, -0.000000000000000, 1.00000000000000 ) );
#228 = DIRECTION( '', ( 1.00000000000000, 0.000000000000000, 0.000000000000000 ) );
#229 = SURFACE_STYLE_FILL_AREA( #308 );
#230 = ORIENTED_EDGE( '', *, *, #309, .T. );
#231 = CARTESIAN_POINT( '', ( -1.88737914186276E-015, 1.88737914186276E-015, 21.0000000000000 ) );
#232 = DIRECTION( '', ( 0.000000000000000, 0.000000000000000, 1.00000000000000 ) );
#233 = DIRECTION( '', ( 1.00000000000000, 0.000000000000000, 0.000000000000000 ) );
#234 = SURFACE_STYLE_FILL_AREA( #310 );
#235 = ORIENTED_EDGE( '', *, *, #311, .T. );
#236 = ORIENTED_EDGE( '', *, *, #309, .F. );
#237 = CARTESIAN_POINT( '', ( -1.88737914186276E-015, 1.88737914186276E-015, 6.00000000000000 ) );
#238 = DIRECTION( '', ( -0.000000000000000, 0.000000000000000, -1.00000000000000 ) );
#239 = DIRECTION( '', ( 0.000000000000000, 1.00000000000000, 0.000000000000000 ) );
#240 = SURFACE_STYLE_FILL_AREA( #312 );
#241 = ORIENTED_EDGE( '', *, *, #313, .T. );
#242 = ORIENTED_EDGE( '', *, *, #300, .T. );
#243 = CARTESIAN_POINT( '', ( 0.000000000000000, 0.000000000000000, 57.1500000000000 ) );
#244 = DIRECTION( '', ( -0.000000000000000, -0.000000000000000, -1.00000000000000 ) );
#245 = DIRECTION( '', ( 1.00000000000000, 0.000000000000000, 0.000000000000000 ) );
#246 = SURFACE_STYLE_FILL_AREA( #314 );
#247 = ORIENTED_EDGE( '', *, *, #313, .F. );
#248 = ORIENTED_EDGE( '', *, *, #303, .F. );
#249 = CARTESIAN_POINT( '', ( 0.000000000000000, 0.000000000000000, 0.500000000000000 ) );
#250 = DIRECTION( '', ( 0.000000000000000, 0.000000000000000, 1.00000000000000 ) );
#251 = DIRECTION( '', ( 1.00000000000000, 0.000000000000000, 0.000000000000000 ) );
#252 = SURFACE_STYLE_FILL_AREA( #315 );
#253 = ORIENTED_EDGE( '', *, *, #316, .F. );
#254 = ORIENTED_EDGE( '', *, *, #317, .F. );
#255 = CARTESIAN_POINT( '', ( 0.000000000000000, 0.000000000000000, 39.0000000000000 ) );
#256 = DIRECTION( '', ( 0.000000000000000, 0.000000000000000, -1.00000000000000 ) );
#257 = DIRECTION( '', ( -1.00000000000000, 0.000000000000000, 0.000000000000000 ) );
#258 = SURFACE_STYLE_FILL_AREA( #318 );
#259 = ORIENTED_EDGE( '', *, *, #317, .T. );
#260 = CARTESIAN_POINT( '', ( 8.50000000000000, 0.000000000000000, 40.0000000000000 ) );
#261 = DIRECTION( '', ( 0.000000000000000, 0.000000000000000, -1.00000000000000 ) );
#262 = DIRECTION( '', ( -1.00000000000000, 0.000000000000000, 0.000000000000000 ) );
#263 = SURFACE_STYLE_FILL_AREA( #319 );
#264 = ORIENTED_EDGE( '', *, *, #320, .F. );
#265 = ORIENTED_EDGE( '', *, *, #321, .T. );
#266 = CARTESIAN_POINT( '', ( 0.000000000000000, 0.000000000000000, 57.1500000000000 ) );
#267 = DIRECTION( '', ( -0.000000000000000, -0.000000000000000, -1.00000000000000 ) );
#268 = DIRECTION( '', ( 1.00000000000000, 0.000000000000000, 0.000000000000000 ) );
#269 = SURFACE_STYLE_FILL_AREA( #322 );
#270 = ORIENTED_EDGE( '', *, *, #311, .F. );
#271 = ORIENTED_EDGE( '', *, *, #301, .F. );
#272 = CARTESIAN_POINT( '', ( -1.88737914186276E-015, 1.88737914186276E-015, 6.50000000000000 ) );
#273 = DIRECTION( '', ( 0.000000000000000, 0.000000000000000, 1.00000000000000 ) );
#274 = DIRECTION( '', ( 1.00000000000000, 0.000000000000000, 0.000000000000000 ) );
#275 = SURFACE_STYLE_FILL_AREA( #323 );
#276 = ORIENTED_EDGE( '', *, *, #304, .F. );
#277 = ORIENTED_EDGE( '', *, *, #306, .F. );
#278 = CARTESIAN_POINT( '', ( 0.000000000000000, 0.000000000000000, 0.500000000000000 ) );
#279 = DIRECTION( '', ( 0.000000000000000, 0.000000000000000, 1.00000000000000 ) );
#280 = DIRECTION( '', ( 1.00000000000000, 0.000000000000000, 0.000000000000000 ) );
#281 = SURFACE_STYLE_FILL_AREA( #324 );
#282 = ORIENTED_EDGE( '', *, *, #320, .T. );
#283 = ORIENTED_EDGE( '', *, *, #325, .T. );
#284 = CARTESIAN_POINT( '', ( -1.88737914186276E-015, 1.88737914186276E-015, 23.0000000000000 ) );
#285 = DIRECTION( '', ( -0.000000000000000, 0.000000000000000, -1.00000000000000 ) );
#286 = DIRECTION( '', ( -1.00000000000000, 0.000000000000000, 0.000000000000000 ) );
#287 = SURFACE_STYLE_FILL_AREA( #326 );
#288 = ORIENTED_EDGE( '', *, *, #325, .F. );
#289 = ORIENTED_EDGE( '', *, *, #321, .F. );
#290 = CARTESIAN_POINT( '', ( 5.00000000000000, 0.000000000000000, 23.0000000000000 ) );
#291 = DIRECTION( '', ( 0.000000000000000, 0.000000000000000, -1.00000000000000 ) );
#292 = DIRECTION( '', ( -1.00000000000000, 0.000000000000000, 0.000000000000000 ) );
#293 = SURFACE_STYLE_FILL_AREA( #327 );
#294 = ORIENTED_EDGE( '', *, *, #316, .T. );
#295 = ORIENTED_EDGE( '', *, *, #307, .T. );
#296 = CARTESIAN_POINT( '', ( 0.000000000000000, 0.000000000000000, 17.5000000000000 ) );
#297 = DIRECTION( '', ( -0.000000000000000, -0.000000000000000, 1.00000000000000 ) );
#298 = DIRECTION( '', ( 1.00000000000000, 0.000000000000000, 0.000000000000000 ) );
#299 = FILL_AREA_STYLE( '', ( #328 ) );
#300 = EDGE_CURVE( '', #329, #329, #330, .T. );
#301 = EDGE_CURVE( '', #331, #331, #332, .T. );
#302 = FILL_AREA_STYLE( '', ( #333 ) );
#303 = EDGE_CURVE( '', #334, #334, #335, .T. );
#304 = EDGE_CURVE( '', #336, #336, #337, .F. );
#305 = FILL_AREA_STYLE( '', ( #338 ) );
#306 = EDGE_CURVE( '', #339, #339, #340, .F. );
#307 = EDGE_CURVE( '', #341, #341, #342, .T. );
#308 = FILL_AREA_STYLE( '', ( #343 ) );
#309 = EDGE_CURVE( '', #344, #344, #345, .T. );
#310 = FILL_AREA_STYLE( '', ( #346 ) );
#311 = EDGE_CURVE( '', #347, #347, #348, .F. );
#312 = FILL_AREA_STYLE( '', ( #349 ) );
#313 = EDGE_CURVE( '', #350, #350, #351, .F. );
#314 = FILL_AREA_STYLE( '', ( #352 ) );
#315 = FILL_AREA_STYLE( '', ( #353 ) );
#316 = EDGE_CURVE( '', #354, #354, #355, .T. );
#317 = EDGE_CURVE( '', #356, #356, #357, .F. );
#318 = FILL_AREA_STYLE( '', ( #358 ) );
#319 = FILL_AREA_STYLE( '', ( #359 ) );
#320 = EDGE_CURVE( '', #360, #360, #361, .F. );
#321 = EDGE_CURVE( '', #362, #362, #363, .T. );
#322 = FILL_AREA_STYLE( '', ( #364 ) );
#323 = FILL_AREA_STYLE( '', ( #365 ) );
#324 = FILL_AREA_STYLE( '', ( #366 ) );
#325 = EDGE_CURVE( '', #367, #367, #368, .T. );
#326 = FILL_AREA_STYLE( '', ( #369 ) );
#327 = FILL_AREA_STYLE( '', ( #370 ) );
#328 = FILL_AREA_STYLE_COLOUR( '', #371 );
#329 = VERTEX_POINT( '', #372 );
#330 = CIRCLE( '', #373, 2.75000000000000 );
#331 = VERTEX_POINT( '', #374 );
#332 = CIRCLE( '', #375, 3.00000000000000 );
#333 = FILL_AREA_STYLE_COLOUR( '', #376 );
#334 = VERTEX_POINT( '', #377 );
#335 = CIRCLE( '', #378, 3.25000000000000 );
#336 = VERTEX_POINT( '', #379 );
#337 = CIRCLE( '', #380, 5.31879746778840 );
#338 = FILL_AREA_STYLE_COLOUR( '', #381 );
#339 = VERTEX_POINT( '', #382 );
#340 = CIRCLE( '', #383, 5.81336880892704 );
#341 = VERTEX_POINT( '', #384 );
#342 = CIRCLE( '', #385, 8.35000000000000 );
#343 = FILL_AREA_STYLE_COLOUR( '', #386 );
#344 = VERTEX_POINT( '', #387 );
#345 = CIRCLE( '', #388, 2.50000000000000 );
#346 = FILL_AREA_STYLE_COLOUR( '', #389 );
#347 = VERTEX_POINT( '', #390 );
#348 = CIRCLE( '', #391, 2.50000000000000 );
#349 = FILL_AREA_STYLE_COLOUR( '', #392 );
#350 = VERTEX_POINT( '', #393 );
#351 = CIRCLE( '', #394, 2.75000000000000 );
#352 = FILL_AREA_STYLE_COLOUR( '', #395 );
#353 = FILL_AREA_STYLE_COLOUR( '', #396 );
#354 = VERTEX_POINT( '', #397 );
#355 = CIRCLE( '', #398, 8.49328888987651 );
#356 = VERTEX_POINT( '', #399 );
#357 = CIRCLE( '', #400, 7.49331111135802 );
#358 = FILL_AREA_STYLE_COLOUR( '', #401 );
#359 = FILL_AREA_STYLE_COLOUR( '', #402 );
#360 = VERTEX_POINT( '', #403 );
#361 = CIRCLE( '', #404, 5.00000000000000 );
#362 = VERTEX_POINT( '', #405 );
#363 = CIRCLE( '', #406, 5.00000000000000 );
#364 = FILL_AREA_STYLE_COLOUR( '', #407 );
#365 = FILL_AREA_STYLE_COLOUR( '', #408 );
#366 = FILL_AREA_STYLE_COLOUR( '', #409 );
#367 = VERTEX_POINT( '', #410 );
#368 = CIRCLE( '', #411, 4.50000000000000 );
#369 = FILL_AREA_STYLE_COLOUR( '', #412 );
#370 = FILL_AREA_STYLE_COLOUR( '', #413 );
#371 = COLOUR_RGB( '', 0.200000002980232, 0.200000002980232, 0.200000002980232 );
#372 = CARTESIAN_POINT( '', ( 2.75000000000000, 0.000000000000000, 6.00000000000000 ) );
#373 = AXIS2_PLACEMENT_3D( '', #414, #415, #416 );
#374 = CARTESIAN_POINT( '', ( 3.00000000000000, 1.88737914186276E-015, 6.00000000000000 ) );
#375 = AXIS2_PLACEMENT_3D( '', #417, #418, #419 );
#376 = COLOUR_RGB( '', 0.200000002980232, 0.200000002980232, 0.200000002980232 );
#377 = CARTESIAN_POINT( '', ( 3.25000000000000, 0.000000000000000, 0.000000000000000 ) );
#378 = AXIS2_PLACEMENT_3D( '', #420, #421, #422 );
#379 = CARTESIAN_POINT( '', ( 5.31879746778840, 0.000000000000000, 0.000000000000000 ) );
#380 = AXIS2_PLACEMENT_3D( '', #423, #424, #425 );
#381 = COLOUR_RGB( '', 0.200000002980232, 0.200000002980232, 0.200000002980232 );
#382 = CARTESIAN_POINT( '', ( -5.81336880892704, 0.000000000000000, 0.426520829316546 ) );
#383 = AXIS2_PLACEMENT_3D( '', #426, #427, #428 );
#384 = CARTESIAN_POINT( '', ( 8.35000000000000, 0.000000000000000, 17.5000000000000 ) );
#385 = AXIS2_PLACEMENT_3D( '', #429, #430, #431 );
#386 = COLOUR_RGB( '', 0.866666674613953, 0.866666674613953, 0.866666674613953 );
#387 = CARTESIAN_POINT( '', ( -1.88737914186276E-015, 2.50000000000000, 21.0000000000000 ) );
#388 = AXIS2_PLACEMENT_3D( '', #432, #433, #434 );
#389 = COLOUR_RGB( '', 0.866666674613953, 0.866666674613953, 0.866666674613953 );
#390 = CARTESIAN_POINT( '', ( 2.50000000000000, 1.88737914186276E-015, 6.50000000000000 ) );
#391 = AXIS2_PLACEMENT_3D( '', #435, #436, #437 );
#392 = COLOUR_RGB( '', 0.200000002980232, 0.200000002980232, 0.200000002980232 );
#393 = CARTESIAN_POINT( '', ( 2.75000000000000, 0.000000000000000, 0.500000000000000 ) );
#394 = AXIS2_PLACEMENT_3D( '', #438, #439, #440 );
#395 = COLOUR_RGB( '', 0.200000002980232, 0.200000002980232, 0.200000002980232 );
#396 = COLOUR_RGB( '', 0.200000002980232, 0.200000002980232, 0.200000002980232 );
#397 = CARTESIAN_POINT( '', ( -8.49328888987651, 0.000000000000000, 38.9933334814765 ) );
#398 = AXIS2_PLACEMENT_3D( '', #441, #442, #443 );
#399 = CARTESIAN_POINT( '', ( -7.49331111135802, 0.000000000000000, 40.0000000000000 ) );
#400 = AXIS2_PLACEMENT_3D( '', #444, #445, #446 );
#401 = COLOUR_RGB( '', 0.200000002980232, 0.200000002980232, 0.200000002980232 );
#402 = COLOUR_RGB( '', 0.200000002980232, 0.200000002980232, 0.200000002980232 );
#403 = CARTESIAN_POINT( '', ( -5.00000000000000, 1.88737914186276E-015, 22.5000000000000 ) );
#404 = AXIS2_PLACEMENT_3D( '', #447, #448, #449 );
#405 = CARTESIAN_POINT( '', ( 5.00000000000000, 0.000000000000000, 23.0000000000000 ) );
#406 = AXIS2_PLACEMENT_3D( '', #450, #451, #452 );
#407 = COLOUR_RGB( '', 0.866666674613953, 0.866666674613953, 0.866666674613953 );
#408 = COLOUR_RGB( '', 0.200000002980232, 0.200000002980232, 0.200000002980232 );
#409 = COLOUR_RGB( '', 0.866666674613953, 0.866666674613953, 0.866666674613953 );
#410 = CARTESIAN_POINT( '', ( -4.50000000000000, 1.88737914186276E-015, 23.0000000000000 ) );
#411 = AXIS2_PLACEMENT_3D( '', #453, #454, #455 );
#412 = COLOUR_RGB( '', 0.200000002980232, 0.200000002980232, 0.200000002980232 );
#413 = COLOUR_RGB( '', 0.200000002980232, 0.200000002980232, 0.200000002980232 );
#414 = CARTESIAN_POINT( '', ( 0.000000000000000, 0.000000000000000, 6.00000000000000 ) );
#415 = DIRECTION( '', ( 0.000000000000000, 0.000000000000000, 1.00000000000000 ) );
#416 = DIRECTION( '', ( 1.00000000000000, 0.000000000000000, 0.000000000000000 ) );
#417 = CARTESIAN_POINT( '', ( -1.88737914186276E-015, 1.88737914186276E-015, 6.00000000000000 ) );
#418 = DIRECTION( '', ( 0.000000000000000, 0.000000000000000, 1.00000000000000 ) );
#419 = DIRECTION( '', ( 1.00000000000000, 0.000000000000000, 0.000000000000000 ) );
#420 = CARTESIAN_POINT( '', ( 0.000000000000000, 0.000000000000000, 0.000000000000000 ) );
#421 = DIRECTION( '', ( 0.000000000000000, 0.000000000000000, 1.00000000000000 ) );
#422 = DIRECTION( '', ( 1.00000000000000, 0.000000000000000, 0.000000000000000 ) );
#423 = CARTESIAN_POINT( '', ( 0.000000000000000, 0.000000000000000, 0.000000000000000 ) );
#424 = DIRECTION( '', ( 0.000000000000000, 0.000000000000000, 1.00000000000000 ) );
#425 = DIRECTION( '', ( 1.00000000000000, 0.000000000000000, 0.000000000000000 ) );
#426 = CARTESIAN_POINT( '', ( 0.000000000000000, 0.000000000000000, 0.426520829316546 ) );
#427 = DIRECTION( '', ( 0.000000000000000, 0.000000000000000, -1.00000000000000 ) );
#428 = DIRECTION( '', ( -1.00000000000000, 0.000000000000000, 0.000000000000000 ) );
#429 = CARTESIAN_POINT( '', ( 0.000000000000000, 0.000000000000000, 17.5000000000000 ) );
#430 = DIRECTION( '', ( 0.000000000000000, 0.000000000000000, 1.00000000000000 ) );
#431 = DIRECTION( '', ( 1.00000000000000, 0.000000000000000, 0.000000000000000 ) );
#432 = CARTESIAN_POINT( '', ( -1.88737914186276E-015, 1.88737914186276E-015, 21.0000000000000 ) );
#433 = DIRECTION( '', ( 0.000000000000000, 0.000000000000000, -1.00000000000000 ) );
#434 = DIRECTION( '', ( 0.000000000000000, 1.00000000000000, 0.000000000000000 ) );
#435 = CARTESIAN_POINT( '', ( -1.88737914186276E-015, 1.88737914186276E-015, 6.50000000000000 ) );
#436 = DIRECTION( '', ( 0.000000000000000, 0.000000000000000, 1.00000000000000 ) );
#437 = DIRECTION( '', ( 1.00000000000000, 0.000000000000000, 0.000000000000000 ) );
#438 = CARTESIAN_POINT( '', ( 0.000000000000000, 0.000000000000000, 0.500000000000000 ) );
#439 = DIRECTION( '', ( 0.000000000000000, 0.000000000000000, 1.00000000000000 ) );
#440 = DIRECTION( '', ( 1.00000000000000, 0.000000000000000, 0.000000000000000 ) );
#441 = CARTESIAN_POINT( '', ( 0.000000000000000, 0.000000000000000, 38.9933334814765 ) );
#442 = DIRECTION( '', ( 0.000000000000000, 0.000000000000000, -1.00000000000000 ) );
#443 = DIRECTION( '', ( -1.00000000000000, 0.000000000000000, 0.000000000000000 ) );
#444 = CARTESIAN_POINT( '', ( 0.000000000000000, 0.000000000000000, 40.0000000000000 ) );
#445 = DIRECTION( '', ( 0.000000000000000, 0.000000000000000, -1.00000000000000 ) );
#446 = DIRECTION( '', ( -1.00000000000000, 0.000000000000000, 0.000000000000000 ) );
#447 = CARTESIAN_POINT( '', ( -1.88737914186276E-015, 1.88737914186276E-015, 22.5000000000000 ) );
#448 = DIRECTION( '', ( 0.000000000000000, 0.000000000000000, -1.00000000000000 ) );
#449 = DIRECTION( '', ( -1.00000000000000, 0.000000000000000, 0.000000000000000 ) );
#450 = CARTESIAN_POINT( '', ( 0.000000000000000, 0.000000000000000, 23.0000000000000 ) );
#451 = DIRECTION( '', ( 0.000000000000000, 0.000000000000000, 1.00000000000000 ) );
#452 = DIRECTION( '', ( 1.00000000000000, 0.000000000000000, 0.000000000000000 ) );
#453 = CARTESIAN_POINT( '', ( -1.88737914186276E-015, 1.88737914186276E-015, 23.0000000000000 ) );
#454 = DIRECTION( '', ( 0.000000000000000, 0.000000000000000, -1.00000000000000 ) );
#455 = DIRECTION( '', ( -1.00000000000000, 0.000000000000000, 0.000000000000000 ) );
ENDSEC;
END-ISO-10303-21;
