ISO-10303-21;
HEADER;
FILE_DESCRIPTION( ( 'Unknown' ), '1' );
FILE_NAME( '//SBS2003/HD_Usb/Disegni/10_GAMM_CD/2- Gamm_STEP/03 - MANOPOLE/03_02.2-MCA/6137010_MCA17x40.stp', 'Unknown', ( 'Unknown' ), ( 'Unknown' ), 'PSStep 11.0', 'Unknown', '  ' );
FILE_SCHEMA( ( 'AUTOMOTIVE_DESIGN { 1 0 10303 214 1 1 1 1 }' ) );
ENDSEC;
DATA;
#1 = MECHANICAL_DESIGN_GEOMETRIC_PRESENTATION_REPRESENTATION( ' ', ( #10, #11, #12, #13, #14, #15, #16, #17, #18, #19, #20, #21, #22, #23, #24 ), #6 );
#2 = PRODUCT_DEFINITION_CONTEXT( '', #25, 'design' );
#3 = APPLICATION_PROTOCOL_DEFINITION( 'INTERNATIONAL STANDARD', 'automotive_design', 2001, #25 );
#4 = PRODUCT_CATEGORY_RELATIONSHIP( 'NONE', 'NONE', #26, #27 );
#5 = SHAPE_DEFINITION_REPRESENTATION( #28, #29 );
#6 =  ( GEOMETRIC_REPRESENTATION_CONTEXT( 3 )GLOBAL_UNCERTAINTY_ASSIGNED_CONTEXT( ( #32 ) )GLOBAL_UNIT_ASSIGNED_CONTEXT( ( #34, #35, #36 ) )REPRESENTATION_CONTEXT( 'NONE', 'WORKSPACE' ) );
#10 = STYLED_ITEM( '', ( #38 ), #39 );
#11 = STYLED_ITEM( '', ( #40 ), #41 );
#12 = STYLED_ITEM( '', ( #42 ), #43 );
#13 = STYLED_ITEM( '', ( #44 ), #45 );
#14 = STYLED_ITEM( '', ( #46 ), #47 );
#15 = STYLED_ITEM( '', ( #48 ), #49 );
#16 = STYLED_ITEM( '', ( #50 ), #51 );
#17 = STYLED_ITEM( '', ( #52 ), #53 );
#18 = STYLED_ITEM( '', ( #54 ), #55 );
#19 = STYLED_ITEM( '', ( #56 ), #57 );
#20 = STYLED_ITEM( '', ( #58 ), #59 );
#21 = STYLED_ITEM( '', ( #60 ), #61 );
#22 = STYLED_ITEM( '', ( #62 ), #63 );
#23 = STYLED_ITEM( '', ( #64 ), #65 );
#24 = STYLED_ITEM( '', ( #66 ), #67 );
#25 = APPLICATION_CONTEXT( 'core data for automotive mechanical design processes' );
#26 = PRODUCT_CATEGORY( 'part', 'NONE' );
#27 = PRODUCT_RELATED_PRODUCT_CATEGORY( 'detail', ' ', ( #68 ) );
#28 = PRODUCT_DEFINITION_SHAPE( 'NONE', 'NONE', #69 );
#29 = ADVANCED_BREP_SHAPE_REPRESENTATION( '6137010', ( #70, #71 ), #6 );
#32 = UNCERTAINTY_MEASURE_WITH_UNIT( LENGTH_MEASURE( 0.00100000000000000 ), #34, '', '' );
#34 =  ( CONVERSION_BASED_UNIT( 'MILLIMETRE', #74 )LENGTH_UNIT(  )NAMED_UNIT( #77 ) );
#35 =  ( NAMED_UNIT( #79 )PLANE_ANGLE_UNIT(  )SI_UNIT( $, .RADIAN. ) );
#36 =  ( NAMED_UNIT( #79 )SI_UNIT( $, .STERADIAN. )SOLID_ANGLE_UNIT(  ) );
#38 = PRESENTATION_STYLE_ASSIGNMENT( ( #85 ) );
#39 = ADVANCED_FACE( '', ( #86, #87 ), #88, .T. );
#40 = PRESENTATION_STYLE_ASSIGNMENT( ( #89 ) );
#41 = ADVANCED_FACE( '', ( #90, #91 ), #92, .T. );
#42 = PRESENTATION_STYLE_ASSIGNMENT( ( #93 ) );
#43 = ADVANCED_FACE( '', ( #94, #95 ), #96, .T. );
#44 = PRESENTATION_STYLE_ASSIGNMENT( ( #97 ) );
#45 = ADVANCED_FACE( '', ( #98, #99 ), #100, .T. );
#46 = PRESENTATION_STYLE_ASSIGNMENT( ( #101 ) );
#47 = ADVANCED_FACE( '', ( #102, #103 ), #104, .F. );
#48 = PRESENTATION_STYLE_ASSIGNMENT( ( #105 ) );
#49 = ADVANCED_FACE( '', ( #106, #107 ), #108, .F. );
#50 = PRESENTATION_STYLE_ASSIGNMENT( ( #109 ) );
#51 = ADVANCED_FACE( '', ( #110, #111 ), #112, .T. );
#52 = PRESENTATION_STYLE_ASSIGNMENT( ( #113 ) );
#53 = ADVANCED_FACE( '', ( #114, #115 ), #116, .F. );
#54 = PRESENTATION_STYLE_ASSIGNMENT( ( #117 ) );
#55 = ADVANCED_FACE( '', ( #118, #119 ), #120, .T. );
#56 = PRESENTATION_STYLE_ASSIGNMENT( ( #121 ) );
#57 = ADVANCED_FACE( '', ( #122, #123 ), #124, .F. );
#58 = PRESENTATION_STYLE_ASSIGNMENT( ( #125 ) );
#59 = ADVANCED_FACE( '', ( #126, #127 ), #128, .T. );
#60 = PRESENTATION_STYLE_ASSIGNMENT( ( #129 ) );
#61 = ADVANCED_FACE( '', ( #130, #131 ), #132, .T. );
#62 = PRESENTATION_STYLE_ASSIGNMENT( ( #133 ) );
#63 = ADVANCED_FACE( '', ( #134 ), #135, .F. );
#64 = PRESENTATION_STYLE_ASSIGNMENT( ( #136 ) );
#65 = ADVANCED_FACE( '', ( #137, #138 ), #139, .T. );
#66 = PRESENTATION_STYLE_ASSIGNMENT( ( #140 ) );
#67 = ADVANCED_FACE( '', ( #141 ), #142, .F. );
#68 = PRODUCT( '6137010', '6137010', 'PART-6137010-DESC', ( #143 ) );
#69 = PRODUCT_DEFINITION( 'NONE', 'NONE', #144, #2 );
#70 = BREP_WITH_VOIDS( '6137010', #145, ( #146 ) );
#71 = AXIS2_PLACEMENT_3D( '', #147, #148, #149 );
#74 = LENGTH_MEASURE_WITH_UNIT( LENGTH_MEASURE( 1.00000000000000 ), #150 );
#77 = DIMENSIONAL_EXPONENTS( 1.00000000000000, 0.000000000000000, 0.000000000000000, 0.000000000000000, 0.000000000000000, 0.000000000000000, 0.000000000000000 );
#79 = DIMENSIONAL_EXPONENTS( 0.000000000000000, 0.000000000000000, 0.000000000000000, 0.000000000000000, 0.000000000000000, 0.000000000000000, 0.000000000000000 );
#85 = SURFACE_STYLE_USAGE( .BOTH., #151 );
#86 = FACE_OUTER_BOUND( '', #152, .T. );
#87 = FACE_BOUND( '', #153, .T. );
#88 = CONICAL_SURFACE( '', #154, 8.35000000000000, 0.00666656790386811 );
#89 = SURFACE_STYLE_USAGE( .BOTH., #155 );
#90 = FACE_OUTER_BOUND( '', #156, .T. );
#91 = FACE_OUTER_BOUND( '', #157, .T. );
#92 = TOROIDAL_SURFACE( '', #158, 3.75000000000000, 0.500000000000000 );
#93 = SURFACE_STYLE_USAGE( .BOTH., #159 );
#94 = FACE_BOUND( '', #160, .T. );
#95 = FACE_OUTER_BOUND( '', #161, .T. );
#96 = PLANE( '', #162 );
#97 = SURFACE_STYLE_USAGE( .BOTH., #163 );
#98 = FACE_OUTER_BOUND( '', #164, .T. );
#99 = FACE_OUTER_BOUND( '', #165, .T. );
#100 = TOROIDAL_SURFACE( '', #166, 7.49331111135802, 1.00000000000000 );
#101 = SURFACE_STYLE_USAGE( .BOTH., #167 );
#102 = FACE_OUTER_BOUND( '', #168, .T. );
#103 = FACE_OUTER_BOUND( '', #169, .T. );
#104 = CYLINDRICAL_SURFACE( '', #170, 3.00000000000000 );
#105 = SURFACE_STYLE_USAGE( .BOTH., #171 );
#106 = FACE_OUTER_BOUND( '', #172, .T. );
#107 = FACE_OUTER_BOUND( '', #173, .T. );
#108 = CYLINDRICAL_SURFACE( '', #174, 3.25000000000000 );
#109 = SURFACE_STYLE_USAGE( .BOTH., #175 );
#110 = FACE_OUTER_BOUND( '', #176, .T. );
#111 = FACE_OUTER_BOUND( '', #177, .T. );
#112 = TOROIDAL_SURFACE( '', #178, 3.50000000000000, 0.500000000000000 );
#113 = SURFACE_STYLE_USAGE( .BOTH., #179 );
#114 = FACE_BOUND( '', #180, .T. );
#115 = FACE_OUTER_BOUND( '', #181, .T. );
#116 = PLANE( '', #182 );
#117 = SURFACE_STYLE_USAGE( .BOTH., #183 );
#118 = FACE_OUTER_BOUND( '', #184, .T. );
#119 = FACE_BOUND( '', #185, .T. );
#120 = CONICAL_SURFACE( '', #186, 4.50000000000000, 0.785398163397448 );
#121 = SURFACE_STYLE_USAGE( .BOTH., #187 );
#122 = FACE_OUTER_BOUND( '', #188, .T. );
#123 = FACE_OUTER_BOUND( '', #189, .T. );
#124 = CYLINDRICAL_SURFACE( '', #190, 5.00000000000000 );
#125 = SURFACE_STYLE_USAGE( .BOTH., #191 );
#126 = FACE_BOUND( '', #192, .T. );
#127 = FACE_OUTER_BOUND( '', #193, .T. );
#128 = PLANE( '', #194 );
#129 = SURFACE_STYLE_USAGE( .BOTH., #195 );
#130 = FACE_BOUND( '', #196, .T. );
#131 = FACE_OUTER_BOUND( '', #197, .T. );
#132 = CONICAL_SURFACE( '', #198, 5.75000000000000, 0.147492519787998 );
#133 = SURFACE_STYLE_USAGE( .BOTH., #199 );
#134 = FACE_OUTER_BOUND( '', #200, .T. );
#135 = PLANE( '', #201 );
#136 = SURFACE_STYLE_USAGE( .BOTH., #202 );
#137 = FACE_OUTER_BOUND( '', #203, .T. );
#138 = FACE_OUTER_BOUND( '', #204, .T. );
#139 = TOROIDAL_SURFACE( '', #205, 5.31879746778840, 0.500000000000000 );
#140 = SURFACE_STYLE_USAGE( .BOTH., #206 );
#141 = FACE_OUTER_BOUND( '', #207, .T. );
#142 = PLANE( '', #208 );
#143 = PRODUCT_CONTEXT( '', #25, 'mechanical' );
#144 = PRODUCT_DEFINITION_FORMATION_WITH_SPECIFIED_SOURCE( ' ', 'NONE', #68, .NOT_KNOWN. );
#145 = CLOSED_SHELL( '', ( #43, #41, #67, #47, #51, #53, #61, #49, #45, #63, #39, #65 ) );
#146 = ORIENTED_CLOSED_SHELL( '', *, #209, .T. );
#147 = CARTESIAN_POINT( '', ( 0.000000000000000, 0.000000000000000, 0.000000000000000 ) );
#148 = DIRECTION( '', ( 0.000000000000000, 0.000000000000000, 1.00000000000000 ) );
#149 = DIRECTION( '', ( 1.00000000000000, 0.000000000000000, 0.000000000000000 ) );
#150 =  ( LENGTH_UNIT(  )NAMED_UNIT( #77 )SI_UNIT( .MILLI., .METRE. ) );
#151 = SURFACE_SIDE_STYLE( '', ( #211 ) );
#152 = EDGE_LOOP( '', ( #212 ) );
#153 = EDGE_LOOP( '', ( #213 ) );
#154 = AXIS2_PLACEMENT_3D( '', #214, #215, #216 );
#155 = SURFACE_SIDE_STYLE( '', ( #217 ) );
#156 = EDGE_LOOP( '', ( #218 ) );
#157 = EDGE_LOOP( '', ( #219 ) );
#158 = AXIS2_PLACEMENT_3D( '', #220, #221, #222 );
#159 = SURFACE_SIDE_STYLE( '', ( #223 ) );
#160 = EDGE_LOOP( '', ( #224 ) );
#161 = EDGE_LOOP( '', ( #225 ) );
#162 = AXIS2_PLACEMENT_3D( '', #226, #227, #228 );
#163 = SURFACE_SIDE_STYLE( '', ( #229 ) );
#164 = EDGE_LOOP( '', ( #230 ) );
#165 = EDGE_LOOP( '', ( #231 ) );
#166 = AXIS2_PLACEMENT_3D( '', #232, #233, #234 );
#167 = SURFACE_SIDE_STYLE( '', ( #235 ) );
#168 = EDGE_LOOP( '', ( #236 ) );
#169 = EDGE_LOOP( '', ( #237 ) );
#170 = AXIS2_PLACEMENT_3D( '', #238, #239, #240 );
#171 = SURFACE_SIDE_STYLE( '', ( #241 ) );
#172 = EDGE_LOOP( '', ( #242 ) );
#173 = EDGE_LOOP( '', ( #243 ) );
#174 = AXIS2_PLACEMENT_3D( '', #244, #245, #246 );
#175 = SURFACE_SIDE_STYLE( '', ( #247 ) );
#176 = EDGE_LOOP( '', ( #248 ) );
#177 = EDGE_LOOP( '', ( #249 ) );
#178 = AXIS2_PLACEMENT_3D( '', #250, #251, #252 );
#179 = SURFACE_SIDE_STYLE( '', ( #253 ) );
#180 = EDGE_LOOP( '', ( #254 ) );
#181 = EDGE_LOOP( '', ( #255 ) );
#182 = AXIS2_PLACEMENT_3D( '', #256, #257, #258 );
#183 = SURFACE_SIDE_STYLE( '', ( #259 ) );
#184 = EDGE_LOOP( '', ( #260 ) );
#185 = EDGE_LOOP( '', ( #261 ) );
#186 = AXIS2_PLACEMENT_3D( '', #262, #263, #264 );
#187 = SURFACE_SIDE_STYLE( '', ( #265 ) );
#188 = EDGE_LOOP( '', ( #266 ) );
#189 = EDGE_LOOP( '', ( #267 ) );
#190 = AXIS2_PLACEMENT_3D( '', #268, #269, #270 );
#191 = SURFACE_SIDE_STYLE( '', ( #271 ) );
#192 = EDGE_LOOP( '', ( #272 ) );
#193 = EDGE_LOOP( '', ( #273 ) );
#194 = AXIS2_PLACEMENT_3D( '', #274, #275, #276 );
#195 = SURFACE_SIDE_STYLE( '', ( #277 ) );
#196 = EDGE_LOOP( '', ( #278 ) );
#197 = EDGE_LOOP( '', ( #279 ) );
#198 = AXIS2_PLACEMENT_3D( '', #280, #281, #282 );
#199 = SURFACE_SIDE_STYLE( '', ( #283 ) );
#200 = EDGE_LOOP( '', ( #284 ) );
#201 = AXIS2_PLACEMENT_3D( '', #285, #286, #287 );
#202 = SURFACE_SIDE_STYLE( '', ( #288 ) );
#203 = EDGE_LOOP( '', ( #289 ) );
#204 = EDGE_LOOP( '', ( #290 ) );
#205 = AXIS2_PLACEMENT_3D( '', #291, #292, #293 );
#206 = SURFACE_SIDE_STYLE( '', ( #294 ) );
#207 = EDGE_LOOP( '', ( #295 ) );
#208 = AXIS2_PLACEMENT_3D( '', #296, #297, #298 );
#209 = CLOSED_SHELL( '', ( #57, #55, #59 ) );
#211 = SURFACE_STYLE_FILL_AREA( #299 );
#212 = ORIENTED_EDGE( '', *, *, #300, .T. );
#213 = ORIENTED_EDGE( '', *, *, #301, .T. );
#214 = CARTESIAN_POINT( '', ( 0.000000000000000, 0.000000000000000, 17.5000000000000 ) );
#215 = DIRECTION( '', ( -0.000000000000000, -0.000000000000000, 1.00000000000000 ) );
#216 = DIRECTION( '', ( 1.00000000000000, 0.000000000000000, 0.000000000000000 ) );
#217 = SURFACE_STYLE_FILL_AREA( #302 );
#218 = ORIENTED_EDGE( '', *, *, #303, .F. );
#219 = ORIENTED_EDGE( '', *, *, #304, .F. );
#220 = CARTESIAN_POINT( '', ( 0.000000000000000, 0.000000000000000, 0.500000000000000 ) );
#221 = DIRECTION( '', ( 0.000000000000000, 0.000000000000000, 1.00000000000000 ) );
#222 = DIRECTION( '', ( 1.00000000000000, 0.000000000000000, 0.000000000000000 ) );
#223 = SURFACE_STYLE_FILL_AREA( #305 );
#224 = ORIENTED_EDGE( '', *, *, #306, .F. );
#225 = ORIENTED_EDGE( '', *, *, #307, .T. );
#226 = CARTESIAN_POINT( '', ( 3.25000000000000, 0.000000000000000, 6.00000000000000 ) );
#227 = DIRECTION( '', ( 0.000000000000000, 0.000000000000000, 1.00000000000000 ) );
#228 = DIRECTION( '', ( 1.00000000000000, 0.000000000000000, 0.000000000000000 ) );
#229 = SURFACE_STYLE_FILL_AREA( #308 );
#230 = ORIENTED_EDGE( '', *, *, #300, .F. );
#231 = ORIENTED_EDGE( '', *, *, #309, .F. );
#232 = CARTESIAN_POINT( '', ( 0.000000000000000, 0.000000000000000, 39.0000000000000 ) );
#233 = DIRECTION( '', ( 0.000000000000000, 0.000000000000000, -1.00000000000000 ) );
#234 = DIRECTION( '', ( -1.00000000000000, 0.000000000000000, 0.000000000000000 ) );
#235 = SURFACE_STYLE_FILL_AREA( #310 );
#236 = ORIENTED_EDGE( '', *, *, #311, .T. );
#237 = ORIENTED_EDGE( '', *, *, #312, .F. );
#238 = CARTESIAN_POINT( '', ( -1.88737914186276E-015, 1.88737914186276E-015, 6.00000000000000 ) );
#239 = DIRECTION( '', ( -0.000000000000000, 0.000000000000000, -1.00000000000000 ) );
#240 = DIRECTION( '', ( 0.000000000000000, 1.00000000000000, 0.000000000000000 ) );
#241 = SURFACE_STYLE_FILL_AREA( #313 );
#242 = ORIENTED_EDGE( '', *, *, #303, .T. );
#243 = ORIENTED_EDGE( '', *, *, #306, .T. );
#244 = CARTESIAN_POINT( '', ( 0.000000000000000, 0.000000000000000, 57.1500000000000 ) );
#245 = DIRECTION( '', ( -0.000000000000000, -0.000000000000000, -1.00000000000000 ) );
#246 = DIRECTION( '', ( 1.00000000000000, 0.000000000000000, 0.000000000000000 ) );
#247 = SURFACE_STYLE_FILL_AREA( #314 );
#248 = ORIENTED_EDGE( '', *, *, #311, .F. );
#249 = ORIENTED_EDGE( '', *, *, #307, .F. );
#250 = CARTESIAN_POINT( '', ( -1.88737914186276E-015, 1.88737914186276E-015, 6.50000000000000 ) );
#251 = DIRECTION( '', ( 0.000000000000000, 0.000000000000000, 1.00000000000000 ) );
#252 = DIRECTION( '', ( 1.00000000000000, 0.000000000000000, 0.000000000000000 ) );
#253 = SURFACE_STYLE_FILL_AREA( #315 );
#254 = ORIENTED_EDGE( '', *, *, #304, .T. );
#255 = ORIENTED_EDGE( '', *, *, #316, .T. );
#256 = CARTESIAN_POINT( '', ( 4.98105542804174E-015, 0.000000000000000, 0.000000000000000 ) );
#257 = DIRECTION( '', ( 0.000000000000000, 0.000000000000000, 1.00000000000000 ) );
#258 = DIRECTION( '', ( 1.00000000000000, 0.000000000000000, 0.000000000000000 ) );
#259 = SURFACE_STYLE_FILL_AREA( #317 );
#260 = ORIENTED_EDGE( '', *, *, #318, .T. );
#261 = ORIENTED_EDGE( '', *, *, #319, .T. );
#262 = CARTESIAN_POINT( '', ( -1.88737914186276E-015, 1.88737914186276E-015, 23.0000000000000 ) );
#263 = DIRECTION( '', ( -0.000000000000000, 0.000000000000000, -1.00000000000000 ) );
#264 = DIRECTION( '', ( -1.00000000000000, 0.000000000000000, 0.000000000000000 ) );
#265 = SURFACE_STYLE_FILL_AREA( #320 );
#266 = ORIENTED_EDGE( '', *, *, #318, .F. );
#267 = ORIENTED_EDGE( '', *, *, #321, .T. );
#268 = CARTESIAN_POINT( '', ( 0.000000000000000, 0.000000000000000, 57.1500000000000 ) );
#269 = DIRECTION( '', ( -0.000000000000000, -0.000000000000000, -1.00000000000000 ) );
#270 = DIRECTION( '', ( 1.00000000000000, 0.000000000000000, 0.000000000000000 ) );
#271 = SURFACE_STYLE_FILL_AREA( #322 );
#272 = ORIENTED_EDGE( '', *, *, #319, .F. );
#273 = ORIENTED_EDGE( '', *, *, #321, .F. );
#274 = CARTESIAN_POINT( '', ( 5.00000000000000, 0.000000000000000, 23.0000000000000 ) );
#275 = DIRECTION( '', ( 0.000000000000000, 0.000000000000000, -1.00000000000000 ) );
#276 = DIRECTION( '', ( -1.00000000000000, 0.000000000000000, 0.000000000000000 ) );
#277 = SURFACE_STYLE_FILL_AREA( #323 );
#278 = ORIENTED_EDGE( '', *, *, #324, .T. );
#279 = ORIENTED_EDGE( '', *, *, #301, .F. );
#280 = CARTESIAN_POINT( '', ( 0.000000000000000, 0.000000000000000, 0.000000000000000 ) );
#281 = DIRECTION( '', ( -0.000000000000000, -0.000000000000000, 1.00000000000000 ) );
#282 = DIRECTION( '', ( 1.00000000000000, 0.000000000000000, 0.000000000000000 ) );
#283 = SURFACE_STYLE_FILL_AREA( #325 );
#284 = ORIENTED_EDGE( '', *, *, #309, .T. );
#285 = CARTESIAN_POINT( '', ( 8.50000000000000, 0.000000000000000, 40.0000000000000 ) );
#286 = DIRECTION( '', ( 0.000000000000000, 0.000000000000000, -1.00000000000000 ) );
#287 = DIRECTION( '', ( -1.00000000000000, 0.000000000000000, 0.000000000000000 ) );
#288 = SURFACE_STYLE_FILL_AREA( #326 );
#289 = ORIENTED_EDGE( '', *, *, #316, .F. );
#290 = ORIENTED_EDGE( '', *, *, #324, .F. );
#291 = CARTESIAN_POINT( '', ( 0.000000000000000, 0.000000000000000, 0.500000000000000 ) );
#292 = DIRECTION( '', ( 0.000000000000000, 0.000000000000000, 1.00000000000000 ) );
#293 = DIRECTION( '', ( 1.00000000000000, 0.000000000000000, 0.000000000000000 ) );
#294 = SURFACE_STYLE_FILL_AREA( #327 );
#295 = ORIENTED_EDGE( '', *, *, #312, .T. );
#296 = CARTESIAN_POINT( '', ( -1.88737914186276E-015, 1.88737914186276E-015, 21.0000000000000 ) );
#297 = DIRECTION( '', ( 0.000000000000000, 0.000000000000000, 1.00000000000000 ) );
#298 = DIRECTION( '', ( 1.00000000000000, 0.000000000000000, 0.000000000000000 ) );
#299 = FILL_AREA_STYLE( '', ( #328 ) );
#300 = EDGE_CURVE( '', #329, #329, #330, .T. );
#301 = EDGE_CURVE( '', #331, #331, #332, .T. );
#302 = FILL_AREA_STYLE( '', ( #333 ) );
#303 = EDGE_CURVE( '', #334, #334, #335, .F. );
#304 = EDGE_CURVE( '', #336, #336, #337, .T. );
#305 = FILL_AREA_STYLE( '', ( #338 ) );
#306 = EDGE_CURVE( '', #339, #339, #340, .T. );
#307 = EDGE_CURVE( '', #341, #341, #342, .T. );
#308 = FILL_AREA_STYLE( '', ( #343 ) );
#309 = EDGE_CURVE( '', #344, #344, #345, .F. );
#310 = FILL_AREA_STYLE( '', ( #346 ) );
#311 = EDGE_CURVE( '', #347, #347, #348, .F. );
#312 = EDGE_CURVE( '', #349, #349, #350, .T. );
#313 = FILL_AREA_STYLE( '', ( #351 ) );
#314 = FILL_AREA_STYLE( '', ( #352 ) );
#315 = FILL_AREA_STYLE( '', ( #353 ) );
#316 = EDGE_CURVE( '', #354, #354, #355, .F. );
#317 = FILL_AREA_STYLE( '', ( #356 ) );
#318 = EDGE_CURVE( '', #357, #357, #358, .F. );
#319 = EDGE_CURVE( '', #359, #359, #360, .T. );
#320 = FILL_AREA_STYLE( '', ( #361 ) );
#321 = EDGE_CURVE( '', #362, #362, #363, .T. );
#322 = FILL_AREA_STYLE( '', ( #364 ) );
#323 = FILL_AREA_STYLE( '', ( #365 ) );
#324 = EDGE_CURVE( '', #366, #366, #367, .F. );
#325 = FILL_AREA_STYLE( '', ( #368 ) );
#326 = FILL_AREA_STYLE( '', ( #369 ) );
#327 = FILL_AREA_STYLE( '', ( #370 ) );
#328 = FILL_AREA_STYLE_COLOUR( '', #371 );
#329 = VERTEX_POINT( '', #372 );
#330 = CIRCLE( '', #373, 8.49328888987651 );
#331 = VERTEX_POINT( '', #374 );
#332 = CIRCLE( '', #375, 8.35000000000000 );
#333 = FILL_AREA_STYLE_COLOUR( '', #376 );
#334 = VERTEX_POINT( '', #377 );
#335 = CIRCLE( '', #378, 3.25000000000000 );
#336 = VERTEX_POINT( '', #379 );
#337 = CIRCLE( '', #380, 3.75000000000000 );
#338 = FILL_AREA_STYLE_COLOUR( '', #381 );
#339 = VERTEX_POINT( '', #382 );
#340 = CIRCLE( '', #383, 3.25000000000000 );
#341 = VERTEX_POINT( '', #384 );
#342 = CIRCLE( '', #385, 3.50000000000000 );
#343 = FILL_AREA_STYLE_COLOUR( '', #386 );
#344 = VERTEX_POINT( '', #387 );
#345 = CIRCLE( '', #388, 7.49331111135802 );
#346 = FILL_AREA_STYLE_COLOUR( '', #389 );
#347 = VERTEX_POINT( '', #390 );
#348 = CIRCLE( '', #391, 3.00000000000000 );
#349 = VERTEX_POINT( '', #392 );
#350 = CIRCLE( '', #393, 3.00000000000000 );
#351 = FILL_AREA_STYLE_COLOUR( '', #394 );
#352 = FILL_AREA_STYLE_COLOUR( '', #395 );
#353 = FILL_AREA_STYLE_COLOUR( '', #396 );
#354 = VERTEX_POINT( '', #397 );
#355 = CIRCLE( '', #398, 5.31879746778840 );
#356 = FILL_AREA_STYLE_COLOUR( '', #399 );
#357 = VERTEX_POINT( '', #400 );
#358 = CIRCLE( '', #401, 5.00000000000000 );
#359 = VERTEX_POINT( '', #402 );
#360 = CIRCLE( '', #403, 4.50000000000000 );
#361 = FILL_AREA_STYLE_COLOUR( '', #404 );
#362 = VERTEX_POINT( '', #405 );
#363 = CIRCLE( '', #406, 5.00000000000000 );
#364 = FILL_AREA_STYLE_COLOUR( '', #407 );
#365 = FILL_AREA_STYLE_COLOUR( '', #408 );
#366 = VERTEX_POINT( '', #409 );
#367 = CIRCLE( '', #410, 5.81336880892704 );
#368 = FILL_AREA_STYLE_COLOUR( '', #411 );
#369 = FILL_AREA_STYLE_COLOUR( '', #412 );
#370 = FILL_AREA_STYLE_COLOUR( '', #413 );
#371 = COLOUR_RGB( '', 0.200000002980232, 0.200000002980232, 0.200000002980232 );
#372 = CARTESIAN_POINT( '', ( -8.49328888987651, 0.000000000000000, 38.9933334814765 ) );
#373 = AXIS2_PLACEMENT_3D( '', #414, #415, #416 );
#374 = CARTESIAN_POINT( '', ( 8.35000000000000, 0.000000000000000, 17.5000000000000 ) );
#375 = AXIS2_PLACEMENT_3D( '', #417, #418, #419 );
#376 = COLOUR_RGB( '', 0.200000002980232, 0.200000002980232, 0.200000002980232 );
#377 = CARTESIAN_POINT( '', ( 3.25000000000000, 0.000000000000000, 0.500000000000000 ) );
#378 = AXIS2_PLACEMENT_3D( '', #420, #421, #422 );
#379 = CARTESIAN_POINT( '', ( 3.75000000000000, 0.000000000000000, 0.000000000000000 ) );
#380 = AXIS2_PLACEMENT_3D( '', #423, #424, #425 );
#381 = COLOUR_RGB( '', 0.200000002980232, 0.200000002980232, 0.200000002980232 );
#382 = CARTESIAN_POINT( '', ( 3.25000000000000, 0.000000000000000, 6.00000000000000 ) );
#383 = AXIS2_PLACEMENT_3D( '', #426, #427, #428 );
#384 = CARTESIAN_POINT( '', ( 3.50000000000000, 1.88737914186276E-015, 6.00000000000000 ) );
#385 = AXIS2_PLACEMENT_3D( '', #429, #430, #431 );
#386 = COLOUR_RGB( '', 0.200000002980232, 0.200000002980232, 0.200000002980232 );
#387 = CARTESIAN_POINT( '', ( -7.49331111135802, 0.000000000000000, 40.0000000000000 ) );
#388 = AXIS2_PLACEMENT_3D( '', #432, #433, #434 );
#389 = COLOUR_RGB( '', 0.866666674613953, 0.866666674613953, 0.866666674613953 );
#390 = CARTESIAN_POINT( '', ( 3.00000000000000, 1.88737914186276E-015, 6.50000000000000 ) );
#391 = AXIS2_PLACEMENT_3D( '', #435, #436, #437 );
#392 = CARTESIAN_POINT( '', ( -1.88737914186276E-015, 3.00000000000000, 21.0000000000000 ) );
#393 = AXIS2_PLACEMENT_3D( '', #438, #439, #440 );
#394 = COLOUR_RGB( '', 0.200000002980232, 0.200000002980232, 0.200000002980232 );
#395 = COLOUR_RGB( '', 0.866666674613953, 0.866666674613953, 0.866666674613953 );
#396 = COLOUR_RGB( '', 0.200000002980232, 0.200000002980232, 0.200000002980232 );
#397 = CARTESIAN_POINT( '', ( 5.31879746778840, 0.000000000000000, 0.000000000000000 ) );
#398 = AXIS2_PLACEMENT_3D( '', #441, #442, #443 );
#399 = COLOUR_RGB( '', 0.866666674613953, 0.866666674613953, 0.866666674613953 );
#400 = CARTESIAN_POINT( '', ( -5.00000000000000, 1.88737914186276E-015, 22.5000000000000 ) );
#401 = AXIS2_PLACEMENT_3D( '', #444, #445, #446 );
#402 = CARTESIAN_POINT( '', ( -4.50000000000000, 1.88737914186276E-015, 23.0000000000000 ) );
#403 = AXIS2_PLACEMENT_3D( '', #447, #448, #449 );
#404 = COLOUR_RGB( '', 0.200000002980232, 0.200000002980232, 0.200000002980232 );
#405 = CARTESIAN_POINT( '', ( 5.00000000000000, 0.000000000000000, 23.0000000000000 ) );
#406 = AXIS2_PLACEMENT_3D( '', #450, #451, #452 );
#407 = COLOUR_RGB( '', 0.200000002980232, 0.200000002980232, 0.200000002980232 );
#408 = COLOUR_RGB( '', 0.200000002980232, 0.200000002980232, 0.200000002980232 );
#409 = CARTESIAN_POINT( '', ( -5.81336880892704, 0.000000000000000, 0.426520829316546 ) );
#410 = AXIS2_PLACEMENT_3D( '', #453, #454, #455 );
#411 = COLOUR_RGB( '', 0.200000002980232, 0.200000002980232, 0.200000002980232 );
#412 = COLOUR_RGB( '', 0.200000002980232, 0.200000002980232, 0.200000002980232 );
#413 = COLOUR_RGB( '', 0.866666674613953, 0.866666674613953, 0.866666674613953 );
#414 = CARTESIAN_POINT( '', ( 0.000000000000000, 0.000000000000000, 38.9933334814765 ) );
#415 = DIRECTION( '', ( 0.000000000000000, 0.000000000000000, -1.00000000000000 ) );
#416 = DIRECTION( '', ( -1.00000000000000, 0.000000000000000, 0.000000000000000 ) );
#417 = CARTESIAN_POINT( '', ( 0.000000000000000, 0.000000000000000, 17.5000000000000 ) );
#418 = DIRECTION( '', ( 0.000000000000000, 0.000000000000000, 1.00000000000000 ) );
#419 = DIRECTION( '', ( 1.00000000000000, 0.000000000000000, 0.000000000000000 ) );
#420 = CARTESIAN_POINT( '', ( 0.000000000000000, 0.000000000000000, 0.500000000000000 ) );
#421 = DIRECTION( '', ( 0.000000000000000, 0.000000000000000, 1.00000000000000 ) );
#422 = DIRECTION( '', ( 1.00000000000000, 0.000000000000000, 0.000000000000000 ) );
#423 = CARTESIAN_POINT( '', ( 0.000000000000000, 0.000000000000000, 0.000000000000000 ) );
#424 = DIRECTION( '', ( 0.000000000000000, 0.000000000000000, 1.00000000000000 ) );
#425 = DIRECTION( '', ( 1.00000000000000, 0.000000000000000, 0.000000000000000 ) );
#426 = CARTESIAN_POINT( '', ( 0.000000000000000, 0.000000000000000, 6.00000000000000 ) );
#427 = DIRECTION( '', ( 0.000000000000000, 0.000000000000000, 1.00000000000000 ) );
#428 = DIRECTION( '', ( 1.00000000000000, 0.000000000000000, 0.000000000000000 ) );
#429 = CARTESIAN_POINT( '', ( -1.88737914186276E-015, 1.88737914186276E-015, 6.00000000000000 ) );
#430 = DIRECTION( '', ( 0.000000000000000, 0.000000000000000, 1.00000000000000 ) );
#431 = DIRECTION( '', ( 1.00000000000000, 0.000000000000000, 0.000000000000000 ) );
#432 = CARTESIAN_POINT( '', ( 0.000000000000000, 0.000000000000000, 40.0000000000000 ) );
#433 = DIRECTION( '', ( 0.000000000000000, 0.000000000000000, -1.00000000000000 ) );
#434 = DIRECTION( '', ( -1.00000000000000, 0.000000000000000, 0.000000000000000 ) );
#435 = CARTESIAN_POINT( '', ( -1.88737914186276E-015, 1.88737914186276E-015, 6.50000000000000 ) );
#436 = DIRECTION( '', ( 0.000000000000000, 0.000000000000000, 1.00000000000000 ) );
#437 = DIRECTION( '', ( 1.00000000000000, 0.000000000000000, 0.000000000000000 ) );
#438 = CARTESIAN_POINT( '', ( -1.88737914186276E-015, 1.88737914186276E-015, 21.0000000000000 ) );
#439 = DIRECTION( '', ( 0.000000000000000, 0.000000000000000, -1.00000000000000 ) );
#440 = DIRECTION( '', ( 0.000000000000000, 1.00000000000000, 0.000000000000000 ) );
#441 = CARTESIAN_POINT( '', ( 0.000000000000000, 0.000000000000000, 0.000000000000000 ) );
#442 = DIRECTION( '', ( 0.000000000000000, 0.000000000000000, 1.00000000000000 ) );
#443 = DIRECTION( '', ( 1.00000000000000, 0.000000000000000, 0.000000000000000 ) );
#444 = CARTESIAN_POINT( '', ( -1.88737914186276E-015, 1.88737914186276E-015, 22.5000000000000 ) );
#445 = DIRECTION( '', ( 0.000000000000000, 0.000000000000000, -1.00000000000000 ) );
#446 = DIRECTION( '', ( -1.00000000000000, 0.000000000000000, 0.000000000000000 ) );
#447 = CARTESIAN_POINT( '', ( -1.88737914186276E-015, 1.88737914186276E-015, 23.0000000000000 ) );
#448 = DIRECTION( '', ( 0.000000000000000, 0.000000000000000, -1.00000000000000 ) );
#449 = DIRECTION( '', ( -1.00000000000000, 0.000000000000000, 0.000000000000000 ) );
#450 = CARTESIAN_POINT( '', ( 0.000000000000000, 0.000000000000000, 23.0000000000000 ) );
#451 = DIRECTION( '', ( 0.000000000000000, 0.000000000000000, 1.00000000000000 ) );
#452 = DIRECTION( '', ( 1.00000000000000, 0.000000000000000, 0.000000000000000 ) );
#453 = CARTESIAN_POINT( '', ( 0.000000000000000, 0.000000000000000, 0.426520829316546 ) );
#454 = DIRECTION( '', ( 0.000000000000000, 0.000000000000000, -1.00000000000000 ) );
#455 = DIRECTION( '', ( -1.00000000000000, 0.000000000000000, 0.000000000000000 ) );
ENDSEC;
END-ISO-10303-21;
