ISO-10303-21;
HEADER;
FILE_DESCRIPTION( ( 'Unknown' ), '1' );
FILE_NAME( '//SBS2003/HD_Usb/Disegni/08_LIB/Users_3D/PROD_GAMM_3D/MCA/6137050_MCA29x115.stp', 'Unknown', ( 'Unknown' ), ( 'Unknown' ), 'PSStep 11.0', 'Unknown', '  ' );
FILE_SCHEMA( ( 'AUTOMOTIVE_DESIGN { 1 0 10303 214 1 1 1 1 }' ) );
ENDSEC;
DATA;
#1 = MECHANICAL_DESIGN_GEOMETRIC_PRESENTATION_REPRESENTATION( ' ', ( #10, #11, #12, #13, #14, #15, #16, #17, #18, #19, #20, #21, #22, #23, #24, #25, #26 ), #6 );
#2 = PRODUCT_DEFINITION_CONTEXT( '', #27, 'design' );
#3 = APPLICATION_PROTOCOL_DEFINITION( 'INTERNATIONAL STANDARD', 'automotive_design', 2001, #27 );
#4 = PRODUCT_CATEGORY_RELATIONSHIP( 'NONE', 'NONE', #28, #29 );
#5 = SHAPE_DEFINITION_REPRESENTATION( #30, #31 );
#6 =  ( GEOMETRIC_REPRESENTATION_CONTEXT( 3 )GLOBAL_UNCERTAINTY_ASSIGNED_CONTEXT( ( #34 ) )GLOBAL_UNIT_ASSIGNED_CONTEXT( ( #36, #37, #38 ) )REPRESENTATION_CONTEXT( 'NONE', 'WORKSPACE' ) );
#10 = STYLED_ITEM( '', ( #40 ), #41 );
#11 = STYLED_ITEM( '', ( #42 ), #43 );
#12 = STYLED_ITEM( '', ( #44 ), #45 );
#13 = STYLED_ITEM( '', ( #46 ), #47 );
#14 = STYLED_ITEM( '', ( #48 ), #49 );
#15 = STYLED_ITEM( '', ( #50 ), #51 );
#16 = STYLED_ITEM( '', ( #52 ), #53 );
#17 = STYLED_ITEM( '', ( #54 ), #55 );
#18 = STYLED_ITEM( '', ( #56 ), #57 );
#19 = STYLED_ITEM( '', ( #58 ), #59 );
#20 = STYLED_ITEM( '', ( #60 ), #61 );
#21 = STYLED_ITEM( '', ( #62 ), #63 );
#22 = STYLED_ITEM( '', ( #64 ), #65 );
#23 = STYLED_ITEM( '', ( #66 ), #67 );
#24 = STYLED_ITEM( '', ( #68 ), #69 );
#25 = STYLED_ITEM( '', ( #70 ), #71 );
#26 = STYLED_ITEM( '', ( #72 ), #73 );
#27 = APPLICATION_CONTEXT( 'core data for automotive mechanical design processes' );
#28 = PRODUCT_CATEGORY( 'part', 'NONE' );
#29 = PRODUCT_RELATED_PRODUCT_CATEGORY( 'detail', ' ', ( #74 ) );
#30 = PRODUCT_DEFINITION_SHAPE( 'NONE', 'NONE', #75 );
#31 = ADVANCED_BREP_SHAPE_REPRESENTATION( '6137050', ( #76, #77 ), #6 );
#34 = UNCERTAINTY_MEASURE_WITH_UNIT( LENGTH_MEASURE( 0.00100000000000000 ), #36, '', '' );
#36 =  ( CONVERSION_BASED_UNIT( 'MILLIMETRE', #80 )LENGTH_UNIT(  )NAMED_UNIT( #83 ) );
#37 =  ( NAMED_UNIT( #85 )PLANE_ANGLE_UNIT(  )SI_UNIT( $, .RADIAN. ) );
#38 =  ( NAMED_UNIT( #85 )SI_UNIT( $, .STERADIAN. )SOLID_ANGLE_UNIT(  ) );
#40 = PRESENTATION_STYLE_ASSIGNMENT( ( #91 ) );
#41 = ADVANCED_FACE( '', ( #92 ), #93, .F. );
#42 = PRESENTATION_STYLE_ASSIGNMENT( ( #94 ) );
#43 = ADVANCED_FACE( '', ( #95, #96 ), #97, .T. );
#44 = PRESENTATION_STYLE_ASSIGNMENT( ( #98 ) );
#45 = ADVANCED_FACE( '', ( #99, #100 ), #101, .F. );
#46 = PRESENTATION_STYLE_ASSIGNMENT( ( #102 ) );
#47 = ADVANCED_FACE( '', ( #103 ), #104, .F. );
#48 = PRESENTATION_STYLE_ASSIGNMENT( ( #105 ) );
#49 = ADVANCED_FACE( '', ( #106, #107 ), #108, .T. );
#50 = PRESENTATION_STYLE_ASSIGNMENT( ( #109 ) );
#51 = ADVANCED_FACE( '', ( #110, #111 ), #112, .F. );
#52 = PRESENTATION_STYLE_ASSIGNMENT( ( #113 ) );
#53 = ADVANCED_FACE( '', ( #114, #115 ), #116, .F. );
#54 = PRESENTATION_STYLE_ASSIGNMENT( ( #117 ) );
#55 = ADVANCED_FACE( '', ( #118, #119 ), #120, .T. );
#56 = PRESENTATION_STYLE_ASSIGNMENT( ( #121 ) );
#57 = ADVANCED_FACE( '', ( #122 ), #123, .T. );
#58 = PRESENTATION_STYLE_ASSIGNMENT( ( #124 ) );
#59 = ADVANCED_FACE( '', ( #125, #126 ), #127, .T. );
#60 = PRESENTATION_STYLE_ASSIGNMENT( ( #128 ) );
#61 = ADVANCED_FACE( '', ( #129 ), #130, .F. );
#62 = PRESENTATION_STYLE_ASSIGNMENT( ( #131 ) );
#63 = ADVANCED_FACE( '', ( #132, #133 ), #134, .F. );
#64 = PRESENTATION_STYLE_ASSIGNMENT( ( #135 ) );
#65 = ADVANCED_FACE( '', ( #136, #137 ), #138, .T. );
#66 = PRESENTATION_STYLE_ASSIGNMENT( ( #139 ) );
#67 = ADVANCED_FACE( '', ( #140, #141 ), #142, .T. );
#68 = PRESENTATION_STYLE_ASSIGNMENT( ( #143 ) );
#69 = ADVANCED_FACE( '', ( #144, #145 ), #146, .T. );
#70 = PRESENTATION_STYLE_ASSIGNMENT( ( #147 ) );
#71 = ADVANCED_FACE( '', ( #148, #149 ), #150, .F. );
#72 = PRESENTATION_STYLE_ASSIGNMENT( ( #151 ) );
#73 = ADVANCED_FACE( '', ( #152, #153 ), #154, .T. );
#74 = PRODUCT( '6137050', '6137050', 'PART-6137050-DESC', ( #155 ) );
#75 = PRODUCT_DEFINITION( 'NONE', 'NONE', #156, #2 );
#76 = BREP_WITH_VOIDS( '6137050', #157, ( #158 ) );
#77 = AXIS2_PLACEMENT_3D( '', #159, #160, #161 );
#80 = LENGTH_MEASURE_WITH_UNIT( LENGTH_MEASURE( 1.00000000000000 ), #162 );
#83 = DIMENSIONAL_EXPONENTS( 1.00000000000000, 0.000000000000000, 0.000000000000000, 0.000000000000000, 0.000000000000000, 0.000000000000000, 0.000000000000000 );
#85 = DIMENSIONAL_EXPONENTS( 0.000000000000000, 0.000000000000000, 0.000000000000000, 0.000000000000000, 0.000000000000000, 0.000000000000000, 0.000000000000000 );
#91 = SURFACE_STYLE_USAGE( .BOTH., #163 );
#92 = FACE_OUTER_BOUND( '', #164, .T. );
#93 = PLANE( '', #165 );
#94 = SURFACE_STYLE_USAGE( .BOTH., #166 );
#95 = FACE_OUTER_BOUND( '', #167, .T. );
#96 = FACE_OUTER_BOUND( '', #168, .T. );
#97 = TOROIDAL_SURFACE( '', #169, 12.4957401539209, 2.00000000000000 );
#98 = SURFACE_STYLE_USAGE( .BOTH., #170 );
#99 = FACE_BOUND( '', #171, .T. );
#100 = FACE_OUTER_BOUND( '', #172, .T. );
#101 = CONICAL_SURFACE( '', #173, 10.0000000000000, 0.895179373347893 );
#102 = SURFACE_STYLE_USAGE( .BOTH., #174 );
#103 = FACE_OUTER_BOUND( '', #175, .T. );
#104 = PLANE( '', #176 );
#105 = SURFACE_STYLE_USAGE( .BOTH., #177 );
#106 = FACE_BOUND( '', #178, .T. );
#107 = FACE_OUTER_BOUND( '', #179, .T. );
#108 = PLANE( '', #180 );
#109 = SURFACE_STYLE_USAGE( .BOTH., #181 );
#110 = FACE_BOUND( '', #182, .T. );
#111 = FACE_OUTER_BOUND( '', #183, .T. );
#112 = PLANE( '', #184 );
#113 = SURFACE_STYLE_USAGE( .BOTH., #185 );
#114 = FACE_OUTER_BOUND( '', #186, .T. );
#115 = FACE_OUTER_BOUND( '', #187, .T. );
#116 = CYLINDRICAL_SURFACE( '', #188, 7.00000000000000 );
#117 = SURFACE_STYLE_USAGE( .BOTH., #189 );
#118 = FACE_OUTER_BOUND( '', #190, .T. );
#119 = FACE_OUTER_BOUND( '', #191, .T. );
#120 = TOROIDAL_SURFACE( '', #192, 8.00000000000000, 1.00000000000000 );
#121 = SURFACE_STYLE_USAGE( .BOTH., #193 );
#122 = FACE_OUTER_BOUND( '', #194, .T. );
#123 = PLANE( '', #195 );
#124 = SURFACE_STYLE_USAGE( .BOTH., #196 );
#125 = FACE_OUTER_BOUND( '', #197, .T. );
#126 = FACE_BOUND( '', #198, .T. );
#127 = CONICAL_SURFACE( '', #199, 14.3500000000000, 0.00212765636388431 );
#128 = SURFACE_STYLE_USAGE( .BOTH., #200 );
#129 = FACE_OUTER_BOUND( '', #201, .T. );
#130 = PLANE( '', #202 );
#131 = SURFACE_STYLE_USAGE( .BOTH., #203 );
#132 = FACE_BOUND( '', #204, .T. );
#133 = FACE_OUTER_BOUND( '', #205, .T. );
#134 = CONICAL_SURFACE( '', #206, 6.82430889739373, 1.07145762779932 );
#135 = SURFACE_STYLE_USAGE( .BOTH., #207 );
#136 = FACE_OUTER_BOUND( '', #208, .T. );
#137 = FACE_OUTER_BOUND( '', #209, .T. );
#138 = TOROIDAL_SURFACE( '', #210, 8.25000000000000, 1.00000000000000 );
#139 = SURFACE_STYLE_USAGE( .BOTH., #211 );
#140 = FACE_OUTER_BOUND( '', #212, .T. );
#141 = FACE_BOUND( '', #213, .T. );
#142 = PLANE( '', #214 );
#143 = SURFACE_STYLE_USAGE( .BOTH., #215 );
#144 = FACE_BOUND( '', #216, .T. );
#145 = FACE_OUTER_BOUND( '', #217, .T. );
#146 = CONICAL_SURFACE( '', #218, 11.2500000000000, 0.0695505587507863 );
#147 = SURFACE_STYLE_USAGE( .BOTH., #219 );
#148 = FACE_OUTER_BOUND( '', #220, .T. );
#149 = FACE_OUTER_BOUND( '', #221, .T. );
#150 = CYLINDRICAL_SURFACE( '', #222, 7.25000000000000 );
#151 = SURFACE_STYLE_USAGE( .BOTH., #223 );
#152 = FACE_OUTER_BOUND( '', #224, .T. );
#153 = FACE_OUTER_BOUND( '', #225, .T. );
#154 = TOROIDAL_SURFACE( '', #226, 10.0840492459732, 1.25000000000000 );
#155 = PRODUCT_CONTEXT( '', #27, 'mechanical' );
#156 = PRODUCT_DEFINITION_FORMATION_WITH_SPECIFIED_SOURCE( ' ', 'NONE', #74, .NOT_KNOWN. );
#157 = CLOSED_SHELL( '', ( #51, #43, #71, #65, #73, #69, #67, #59, #61, #55, #41, #53 ) );
#158 = ORIENTED_CLOSED_SHELL( '', *, #227, .T. );
#159 = CARTESIAN_POINT( '', ( 0.000000000000000, 0.000000000000000, 0.000000000000000 ) );
#160 = DIRECTION( '', ( 0.000000000000000, 0.000000000000000, 1.00000000000000 ) );
#161 = DIRECTION( '', ( 1.00000000000000, 0.000000000000000, 0.000000000000000 ) );
#162 =  ( LENGTH_UNIT(  )NAMED_UNIT( #83 )SI_UNIT( .MILLI., .METRE. ) );
#163 = SURFACE_SIDE_STYLE( '', ( #229 ) );
#164 = EDGE_LOOP( '', ( #230 ) );
#165 = AXIS2_PLACEMENT_3D( '', #231, #232, #233 );
#166 = SURFACE_SIDE_STYLE( '', ( #234 ) );
#167 = EDGE_LOOP( '', ( #235 ) );
#168 = EDGE_LOOP( '', ( #236 ) );
#169 = AXIS2_PLACEMENT_3D( '', #237, #238, #239 );
#170 = SURFACE_SIDE_STYLE( '', ( #240 ) );
#171 = EDGE_LOOP( '', ( #241 ) );
#172 = EDGE_LOOP( '', ( #242 ) );
#173 = AXIS2_PLACEMENT_3D( '', #243, #244, #245 );
#174 = SURFACE_SIDE_STYLE( '', ( #246 ) );
#175 = EDGE_LOOP( '', ( #247 ) );
#176 = AXIS2_PLACEMENT_3D( '', #248, #249, #250 );
#177 = SURFACE_SIDE_STYLE( '', ( #251 ) );
#178 = EDGE_LOOP( '', ( #252 ) );
#179 = EDGE_LOOP( '', ( #253 ) );
#180 = AXIS2_PLACEMENT_3D( '', #254, #255, #256 );
#181 = SURFACE_SIDE_STYLE( '', ( #257 ) );
#182 = EDGE_LOOP( '', ( #258 ) );
#183 = EDGE_LOOP( '', ( #259 ) );
#184 = AXIS2_PLACEMENT_3D( '', #260, #261, #262 );
#185 = SURFACE_SIDE_STYLE( '', ( #263 ) );
#186 = EDGE_LOOP( '', ( #264 ) );
#187 = EDGE_LOOP( '', ( #265 ) );
#188 = AXIS2_PLACEMENT_3D( '', #266, #267, #268 );
#189 = SURFACE_SIDE_STYLE( '', ( #269 ) );
#190 = EDGE_LOOP( '', ( #270 ) );
#191 = EDGE_LOOP( '', ( #271 ) );
#192 = AXIS2_PLACEMENT_3D( '', #272, #273, #274 );
#193 = SURFACE_SIDE_STYLE( '', ( #275 ) );
#194 = EDGE_LOOP( '', ( #276 ) );
#195 = AXIS2_PLACEMENT_3D( '', #277, #278, #279 );
#196 = SURFACE_SIDE_STYLE( '', ( #280 ) );
#197 = EDGE_LOOP( '', ( #281 ) );
#198 = EDGE_LOOP( '', ( #282 ) );
#199 = AXIS2_PLACEMENT_3D( '', #283, #284, #285 );
#200 = SURFACE_SIDE_STYLE( '', ( #286 ) );
#201 = EDGE_LOOP( '', ( #287 ) );
#202 = AXIS2_PLACEMENT_3D( '', #288, #289, #290 );
#203 = SURFACE_SIDE_STYLE( '', ( #291 ) );
#204 = EDGE_LOOP( '', ( #292 ) );
#205 = EDGE_LOOP( '', ( #293 ) );
#206 = AXIS2_PLACEMENT_3D( '', #294, #295, #296 );
#207 = SURFACE_SIDE_STYLE( '', ( #297 ) );
#208 = EDGE_LOOP( '', ( #298 ) );
#209 = EDGE_LOOP( '', ( #299 ) );
#210 = AXIS2_PLACEMENT_3D( '', #300, #301, #302 );
#211 = SURFACE_SIDE_STYLE( '', ( #303 ) );
#212 = EDGE_LOOP( '', ( #304 ) );
#213 = EDGE_LOOP( '', ( #305 ) );
#214 = AXIS2_PLACEMENT_3D( '', #306, #307, #308 );
#215 = SURFACE_SIDE_STYLE( '', ( #309 ) );
#216 = EDGE_LOOP( '', ( #310 ) );
#217 = EDGE_LOOP( '', ( #311 ) );
#218 = AXIS2_PLACEMENT_3D( '', #312, #313, #314 );
#219 = SURFACE_SIDE_STYLE( '', ( #315 ) );
#220 = EDGE_LOOP( '', ( #316 ) );
#221 = EDGE_LOOP( '', ( #317 ) );
#222 = AXIS2_PLACEMENT_3D( '', #318, #319, #320 );
#223 = SURFACE_SIDE_STYLE( '', ( #321 ) );
#224 = EDGE_LOOP( '', ( #322 ) );
#225 = EDGE_LOOP( '', ( #323 ) );
#226 = AXIS2_PLACEMENT_3D( '', #324, #325, #326 );
#227 = CLOSED_SHELL( '', ( #45, #47, #49, #63, #57 ) );
#229 = SURFACE_STYLE_FILL_AREA( #327 );
#230 = ORIENTED_EDGE( '', *, *, #328, .F. );
#231 = CARTESIAN_POINT( '', ( 4.28612223837832E-016, 7.00000000000000, -12.5000000000000 ) );
#232 = DIRECTION( '', ( 0.000000000000000, 0.000000000000000, 1.00000000000000 ) );
#233 = DIRECTION( '', ( 1.00000000000000, 0.000000000000000, 0.000000000000000 ) );
#234 = SURFACE_STYLE_FILL_AREA( #329 );
#235 = ORIENTED_EDGE( '', *, *, #330, .F. );
#236 = ORIENTED_EDGE( '', *, *, #331, .F. );
#237 = CARTESIAN_POINT( '', ( 1.27192439451880E-014, 0.000000000000000, 55.5000000000000 ) );
#238 = DIRECTION( '', ( 0.000000000000000, 0.000000000000000, -1.00000000000000 ) );
#239 = DIRECTION( '', ( -1.00000000000000, 0.000000000000000, 0.000000000000000 ) );
#240 = SURFACE_STYLE_FILL_AREA( #332 );
#241 = ORIENTED_EDGE( '', *, *, #333, .T. );
#242 = ORIENTED_EDGE( '', *, *, #334, .T. );
#243 = CARTESIAN_POINT( '', ( 0.000000000000000, 0.000000000000000, -9.49279301492238 ) );
#244 = DIRECTION( '', ( -0.000000000000000, 0.000000000000000, -1.00000000000000 ) );
#245 = DIRECTION( '', ( -1.00000000000000, 0.000000000000000, 0.000000000000000 ) );
#246 = SURFACE_STYLE_FILL_AREA( #335 );
#247 = ORIENTED_EDGE( '', *, *, #334, .F. );
#248 = CARTESIAN_POINT( '', ( 4.62585238633970E-016, 7.55483976038663, -7.50000000000000 ) );
#249 = DIRECTION( '', ( 0.000000000000000, 0.000000000000000, -1.00000000000000 ) );
#250 = DIRECTION( '', ( -1.00000000000000, 0.000000000000000, 0.000000000000000 ) );
#251 = SURFACE_STYLE_FILL_AREA( #336 );
#252 = ORIENTED_EDGE( '', *, *, #337, .T. );
#253 = ORIENTED_EDGE( '', *, *, #333, .F. );
#254 = CARTESIAN_POINT( '', ( 6.82430889739373, 0.000000000000000, -7.10050158100593 ) );
#255 = DIRECTION( '', ( 0.000000000000000, 0.000000000000000, -1.00000000000000 ) );
#256 = DIRECTION( '', ( -1.00000000000000, 0.000000000000000, 0.000000000000000 ) );
#257 = SURFACE_STYLE_FILL_AREA( #338 );
#258 = ORIENTED_EDGE( '', *, *, #339, .T. );
#259 = ORIENTED_EDGE( '', *, *, #340, .T. );
#260 = CARTESIAN_POINT( '', ( 1.27192439451880E-014, 0.000000000000000, -57.5000000000000 ) );
#261 = DIRECTION( '', ( 0.000000000000000, 0.000000000000000, 1.00000000000000 ) );
#262 = DIRECTION( '', ( 1.00000000000000, 0.000000000000000, 0.000000000000000 ) );
#263 = SURFACE_STYLE_FILL_AREA( #341 );
#264 = ORIENTED_EDGE( '', *, *, #342, .F. );
#265 = ORIENTED_EDGE( '', *, *, #328, .T. );
#266 = CARTESIAN_POINT( '', ( 0.000000000000000, 0.000000000000000, -5.50000000000000 ) );
#267 = DIRECTION( '', ( -0.000000000000000, -0.000000000000000, -1.00000000000000 ) );
#268 = DIRECTION( '', ( 1.00000000000000, 0.000000000000000, 0.000000000000000 ) );
#269 = SURFACE_STYLE_FILL_AREA( #343 );
#270 = ORIENTED_EDGE( '', *, *, #344, .T. );
#271 = ORIENTED_EDGE( '', *, *, #342, .T. );
#272 = CARTESIAN_POINT( '', ( 0.000000000000000, 0.000000000000000, -46.5000000000000 ) );
#273 = DIRECTION( '', ( 0.000000000000000, 0.000000000000000, 1.00000000000000 ) );
#274 = DIRECTION( '', ( 1.00000000000000, 0.000000000000000, 0.000000000000000 ) );
#275 = SURFACE_STYLE_FILL_AREA( #345 );
#276 = ORIENTED_EDGE( '', *, *, #346, .F. );
#277 = CARTESIAN_POINT( '', ( 3.89000000000000, 0.000000000000000, -5.50000000000000 ) );
#278 = DIRECTION( '', ( 0.000000000000000, 0.000000000000000, -1.00000000000000 ) );
#279 = DIRECTION( '', ( -1.00000000000000, 0.000000000000000, 0.000000000000000 ) );
#280 = SURFACE_STYLE_FILL_AREA( #347 );
#281 = ORIENTED_EDGE( '', *, *, #330, .T. );
#282 = ORIENTED_EDGE( '', *, *, #348, .T. );
#283 = CARTESIAN_POINT( '', ( 1.27192439451880E-014, 0.000000000000000, -13.0000000000000 ) );
#284 = DIRECTION( '', ( -0.000000000000000, -0.000000000000000, 1.00000000000000 ) );
#285 = DIRECTION( '', ( 1.00000000000000, 0.000000000000000, 0.000000000000000 ) );
#286 = SURFACE_STYLE_FILL_AREA( #349 );
#287 = ORIENTED_EDGE( '', *, *, #331, .T. );
#288 = CARTESIAN_POINT( '', ( 14.5000000000000, 0.000000000000000, 57.5000000000000 ) );
#289 = DIRECTION( '', ( 0.000000000000000, 0.000000000000000, -1.00000000000000 ) );
#290 = DIRECTION( '', ( -1.00000000000000, 0.000000000000000, 0.000000000000000 ) );
#291 = SURFACE_STYLE_FILL_AREA( #350 );
#292 = ORIENTED_EDGE( '', *, *, #346, .T. );
#293 = ORIENTED_EDGE( '', *, *, #337, .F. );
#294 = CARTESIAN_POINT( '', ( 0.000000000000000, 0.000000000000000, -7.10050158100593 ) );
#295 = DIRECTION( '', ( -0.000000000000000, 0.000000000000000, -1.00000000000000 ) );
#296 = DIRECTION( '', ( -1.00000000000000, 0.000000000000000, 0.000000000000000 ) );
#297 = SURFACE_STYLE_FILL_AREA( #351 );
#298 = ORIENTED_EDGE( '', *, *, #352, .F. );
#299 = ORIENTED_EDGE( '', *, *, #339, .F. );
#300 = CARTESIAN_POINT( '', ( 0.000000000000000, 0.000000000000000, -56.5000000000000 ) );
#301 = DIRECTION( '', ( 0.000000000000000, 0.000000000000000, 1.00000000000000 ) );
#302 = DIRECTION( '', ( 1.00000000000000, 0.000000000000000, 0.000000000000000 ) );
#303 = SURFACE_STYLE_FILL_AREA( #353 );
#304 = ORIENTED_EDGE( '', *, *, #344, .F. );
#305 = ORIENTED_EDGE( '', *, *, #354, .F. );
#306 = CARTESIAN_POINT( '', ( 7.25000000000000, 0.000000000000000, -47.5000000000000 ) );
#307 = DIRECTION( '', ( 0.000000000000000, 0.000000000000000, 1.00000000000000 ) );
#308 = DIRECTION( '', ( 1.00000000000000, 0.000000000000000, 0.000000000000000 ) );
#309 = SURFACE_STYLE_FILL_AREA( #355 );
#310 = ORIENTED_EDGE( '', *, *, #356, .T. );
#311 = ORIENTED_EDGE( '', *, *, #348, .F. );
#312 = CARTESIAN_POINT( '', ( 1.27192439451880E-014, 0.000000000000000, -57.5000000000000 ) );
#313 = DIRECTION( '', ( -0.000000000000000, -0.000000000000000, 1.00000000000000 ) );
#314 = DIRECTION( '', ( 1.00000000000000, 0.000000000000000, 0.000000000000000 ) );
#315 = SURFACE_STYLE_FILL_AREA( #357 );
#316 = ORIENTED_EDGE( '', *, *, #352, .T. );
#317 = ORIENTED_EDGE( '', *, *, #354, .T. );
#318 = CARTESIAN_POINT( '', ( 0.000000000000000, 0.000000000000000, 57.1500000000000 ) );
#319 = DIRECTION( '', ( -0.000000000000000, -0.000000000000000, -1.00000000000000 ) );
#320 = DIRECTION( '', ( 1.00000000000000, 0.000000000000000, 0.000000000000000 ) );
#321 = SURFACE_STYLE_FILL_AREA( #358 );
#322 = ORIENTED_EDGE( '', *, *, #340, .F. );
#323 = ORIENTED_EDGE( '', *, *, #356, .F. );
#324 = CARTESIAN_POINT( '', ( 1.27192439451880E-014, 0.000000000000000, -56.2500000000000 ) );
#325 = DIRECTION( '', ( 0.000000000000000, 0.000000000000000, 1.00000000000000 ) );
#326 = DIRECTION( '', ( 1.00000000000000, 0.000000000000000, 0.000000000000000 ) );
#327 = FILL_AREA_STYLE( '', ( #359 ) );
#328 = EDGE_CURVE( '', #360, #360, #361, .T. );
#329 = FILL_AREA_STYLE( '', ( #362 ) );
#330 = EDGE_CURVE( '', #363, #363, #364, .T. );
#331 = EDGE_CURVE( '', #365, #365, #366, .F. );
#332 = FILL_AREA_STYLE( '', ( #367 ) );
#333 = EDGE_CURVE( '', #368, #368, #369, .T. );
#334 = EDGE_CURVE( '', #370, #370, #371, .T. );
#335 = FILL_AREA_STYLE( '', ( #372 ) );
#336 = FILL_AREA_STYLE( '', ( #373 ) );
#337 = EDGE_CURVE( '', #374, #374, #375, .T. );
#338 = FILL_AREA_STYLE( '', ( #376 ) );
#339 = EDGE_CURVE( '', #377, #377, #378, .T. );
#340 = EDGE_CURVE( '', #379, #379, #380, .F. );
#341 = FILL_AREA_STYLE( '', ( #381 ) );
#342 = EDGE_CURVE( '', #382, #382, #383, .T. );
#343 = FILL_AREA_STYLE( '', ( #384 ) );
#344 = EDGE_CURVE( '', #385, #385, #386, .F. );
#345 = FILL_AREA_STYLE( '', ( #387 ) );
#346 = EDGE_CURVE( '', #388, #388, #389, .T. );
#347 = FILL_AREA_STYLE( '', ( #390 ) );
#348 = EDGE_CURVE( '', #391, #391, #392, .T. );
#349 = FILL_AREA_STYLE( '', ( #393 ) );
#350 = FILL_AREA_STYLE( '', ( #394 ) );
#351 = FILL_AREA_STYLE( '', ( #395 ) );
#352 = EDGE_CURVE( '', #396, #396, #397, .F. );
#353 = FILL_AREA_STYLE( '', ( #398 ) );
#354 = EDGE_CURVE( '', #399, #399, #400, .T. );
#355 = FILL_AREA_STYLE( '', ( #401 ) );
#356 = EDGE_CURVE( '', #402, #402, #403, .F. );
#357 = FILL_AREA_STYLE( '', ( #404 ) );
#358 = FILL_AREA_STYLE( '', ( #405 ) );
#359 = FILL_AREA_STYLE_COLOUR( '', #406 );
#360 = VERTEX_POINT( '', #407 );
#361 = CIRCLE( '', #408, 7.00000000000000 );
#362 = FILL_AREA_STYLE_COLOUR( '', #409 );
#363 = VERTEX_POINT( '', #410 );
#364 = CIRCLE( '', #411, 14.4957356270010 );
#365 = VERTEX_POINT( '', #412 );
#366 = CIRCLE( '', #413, 12.4957401539209 );
#367 = FILL_AREA_STYLE_COLOUR( '', #414 );
#368 = VERTEX_POINT( '', #415 );
#369 = CIRCLE( '', #416, 7.01500000000000 );
#370 = VERTEX_POINT( '', #417 );
#371 = CIRCLE( '', #418, 7.51347721886670 );
#372 = FILL_AREA_STYLE_COLOUR( '', #419 );
#373 = FILL_AREA_STYLE_COLOUR( '', #420 );
#374 = VERTEX_POINT( '', #421 );
#375 = CIRCLE( '', #422, 6.82430889739373 );
#376 = FILL_AREA_STYLE_COLOUR( '', #423 );
#377 = VERTEX_POINT( '', #424 );
#378 = CIRCLE( '', #425, 8.25000000000000 );
#379 = VERTEX_POINT( '', #426 );
#380 = CIRCLE( '', #427, 10.0840492459732 );
#381 = FILL_AREA_STYLE_COLOUR( '', #428 );
#382 = VERTEX_POINT( '', #429 );
#383 = CIRCLE( '', #430, 7.00000000000000 );
#384 = FILL_AREA_STYLE_COLOUR( '', #431 );
#385 = VERTEX_POINT( '', #432 );
#386 = CIRCLE( '', #433, 8.00000000000000 );
#387 = FILL_AREA_STYLE_COLOUR( '', #434 );
#388 = VERTEX_POINT( '', #435 );
#389 = CIRCLE( '', #436, 3.89000000000000 );
#390 = FILL_AREA_STYLE_COLOUR( '', #437 );
#391 = VERTEX_POINT( '', #438 );
#392 = CIRCLE( '', #439, 14.3500000000000 );
#393 = FILL_AREA_STYLE_COLOUR( '', #440 );
#394 = FILL_AREA_STYLE_COLOUR( '', #441 );
#395 = FILL_AREA_STYLE_COLOUR( '', #442 );
#396 = VERTEX_POINT( '', #443 );
#397 = CIRCLE( '', #444, 7.25000000000000 );
#398 = FILL_AREA_STYLE_COLOUR( '', #445 );
#399 = VERTEX_POINT( '', #446 );
#400 = CIRCLE( '', #447, 7.25000000000000 );
#401 = FILL_AREA_STYLE_COLOUR( '', #448 );
#402 = VERTEX_POINT( '', #449 );
#403 = CIRCLE( '', #450, 11.3310271643502 );
#404 = FILL_AREA_STYLE_COLOUR( '', #451 );
#405 = FILL_AREA_STYLE_COLOUR( '', #452 );
#406 = COLOUR_RGB( '', 0.866666674613953, 0.866666674613953, 0.866666674613953 );
#407 = CARTESIAN_POINT( '', ( 7.00000000000000, 0.000000000000000, -12.5000000000000 ) );
#408 = AXIS2_PLACEMENT_3D( '', #453, #454, #455 );
#409 = COLOUR_RGB( '', 0.200000002980232, 0.200000002980232, 0.200000002980232 );
#410 = CARTESIAN_POINT( '', ( -14.4957356270010, 0.000000000000000, 55.4957446904831 ) );
#411 = AXIS2_PLACEMENT_3D( '', #456, #457, #458 );
#412 = CARTESIAN_POINT( '', ( -12.4957401539209, 0.000000000000000, 57.5000000000000 ) );
#413 = AXIS2_PLACEMENT_3D( '', #459, #460, #461 );
#414 = COLOUR_RGB( '', 0.200000002980232, 0.200000002980232, 0.200000002980232 );
#415 = CARTESIAN_POINT( '', ( 7.01500000000000, 0.000000000000000, -7.10050158100593 ) );
#416 = AXIS2_PLACEMENT_3D( '', #462, #463, #464 );
#417 = CARTESIAN_POINT( '', ( -7.51347721886670, 0.000000000000000, -7.50000000000000 ) );
#418 = AXIS2_PLACEMENT_3D( '', #465, #466, #467 );
#419 = COLOUR_RGB( '', 0.866666674613953, 0.866666674613953, 0.866666674613953 );
#420 = COLOUR_RGB( '', 0.200000002980232, 0.200000002980232, 0.200000002980232 );
#421 = CARTESIAN_POINT( '', ( 6.82430889739373, 0.000000000000000, -7.10050158100593 ) );
#422 = AXIS2_PLACEMENT_3D( '', #468, #469, #470 );
#423 = COLOUR_RGB( '', 0.200000002980232, 0.200000002980232, 0.200000002980232 );
#424 = CARTESIAN_POINT( '', ( 8.25000000000000, 0.000000000000000, -57.5000000000000 ) );
#425 = AXIS2_PLACEMENT_3D( '', #471, #472, #473 );
#426 = CARTESIAN_POINT( '', ( 10.0840492459733, 0.000000000000000, -57.5000000000000 ) );
#427 = AXIS2_PLACEMENT_3D( '', #474, #475, #476 );
#428 = COLOUR_RGB( '', 0.866666674613953, 0.866666674613953, 0.866666674613953 );
#429 = CARTESIAN_POINT( '', ( 7.00000000000000, 0.000000000000000, -46.5000000000000 ) );
#430 = AXIS2_PLACEMENT_3D( '', #477, #478, #479 );
#431 = COLOUR_RGB( '', 0.866666674613953, 0.866666674613953, 0.866666674613953 );
#432 = CARTESIAN_POINT( '', ( 8.00000000000000, 0.000000000000000, -47.5000000000000 ) );
#433 = AXIS2_PLACEMENT_3D( '', #480, #481, #482 );
#434 = COLOUR_RGB( '', 0.200000002980232, 0.200000002980232, 0.200000002980232 );
#435 = CARTESIAN_POINT( '', ( 3.89000000000000, 0.000000000000000, -5.50000000000000 ) );
#436 = AXIS2_PLACEMENT_3D( '', #483, #484, #485 );
#437 = COLOUR_RGB( '', 0.200000002980232, 0.200000002980232, 0.200000002980232 );
#438 = CARTESIAN_POINT( '', ( 14.3500000000000, 0.000000000000000, -13.0000000000000 ) );
#439 = AXIS2_PLACEMENT_3D( '', #486, #487, #488 );
#440 = COLOUR_RGB( '', 0.200000002980232, 0.200000002980232, 0.200000002980232 );
#441 = COLOUR_RGB( '', 0.200000002980232, 0.200000002980232, 0.200000002980232 );
#442 = COLOUR_RGB( '', 0.200000002980232, 0.200000002980232, 0.200000002980232 );
#443 = CARTESIAN_POINT( '', ( 7.25000000000000, 0.000000000000000, -56.5000000000000 ) );
#444 = AXIS2_PLACEMENT_3D( '', #489, #490, #491 );
#445 = COLOUR_RGB( '', 0.200000002980232, 0.200000002980232, 0.200000002980232 );
#446 = CARTESIAN_POINT( '', ( 7.25000000000000, 0.000000000000000, -47.5000000000000 ) );
#447 = AXIS2_PLACEMENT_3D( '', #492, #493, #494 );
#448 = COLOUR_RGB( '', 0.200000002980232, 0.200000002980232, 0.200000002980232 );
#449 = CARTESIAN_POINT( '', ( -11.3310271643501, 0.000000000000000, -56.3368681246510 ) );
#450 = AXIS2_PLACEMENT_3D( '', #495, #496, #497 );
#451 = COLOUR_RGB( '', 0.200000002980232, 0.200000002980232, 0.200000002980232 );
#452 = COLOUR_RGB( '', 0.200000002980232, 0.200000002980232, 0.200000002980232 );
#453 = CARTESIAN_POINT( '', ( 0.000000000000000, 0.000000000000000, -12.5000000000000 ) );
#454 = DIRECTION( '', ( 0.000000000000000, 0.000000000000000, 1.00000000000000 ) );
#455 = DIRECTION( '', ( 1.00000000000000, 0.000000000000000, 0.000000000000000 ) );
#456 = CARTESIAN_POINT( '', ( 1.27192439451880E-014, 0.000000000000000, 55.4957446904831 ) );
#457 = DIRECTION( '', ( 0.000000000000000, 0.000000000000000, -1.00000000000000 ) );
#458 = DIRECTION( '', ( -1.00000000000000, 0.000000000000000, 0.000000000000000 ) );
#459 = CARTESIAN_POINT( '', ( 1.27192439451880E-014, 0.000000000000000, 57.5000000000000 ) );
#460 = DIRECTION( '', ( 0.000000000000000, 0.000000000000000, -1.00000000000000 ) );
#461 = DIRECTION( '', ( -1.00000000000000, 0.000000000000000, 0.000000000000000 ) );
#462 = CARTESIAN_POINT( '', ( 0.000000000000000, 0.000000000000000, -7.10050158100593 ) );
#463 = DIRECTION( '', ( 0.000000000000000, 0.000000000000000, 1.00000000000000 ) );
#464 = DIRECTION( '', ( 1.00000000000000, 0.000000000000000, 0.000000000000000 ) );
#465 = CARTESIAN_POINT( '', ( 0.000000000000000, 0.000000000000000, -7.50000000000000 ) );
#466 = DIRECTION( '', ( 0.000000000000000, 0.000000000000000, -1.00000000000000 ) );
#467 = DIRECTION( '', ( -1.00000000000000, 0.000000000000000, 0.000000000000000 ) );
#468 = CARTESIAN_POINT( '', ( 0.000000000000000, 0.000000000000000, -7.10050158100593 ) );
#469 = DIRECTION( '', ( 0.000000000000000, 0.000000000000000, 1.00000000000000 ) );
#470 = DIRECTION( '', ( 1.00000000000000, 0.000000000000000, 0.000000000000000 ) );
#471 = CARTESIAN_POINT( '', ( 0.000000000000000, 0.000000000000000, -57.5000000000000 ) );
#472 = DIRECTION( '', ( 0.000000000000000, 0.000000000000000, 1.00000000000000 ) );
#473 = DIRECTION( '', ( 1.00000000000000, 0.000000000000000, 0.000000000000000 ) );
#474 = CARTESIAN_POINT( '', ( 1.27192439451880E-014, 0.000000000000000, -57.5000000000000 ) );
#475 = DIRECTION( '', ( 0.000000000000000, 0.000000000000000, 1.00000000000000 ) );
#476 = DIRECTION( '', ( 1.00000000000000, 0.000000000000000, 0.000000000000000 ) );
#477 = CARTESIAN_POINT( '', ( 0.000000000000000, 0.000000000000000, -46.5000000000000 ) );
#478 = DIRECTION( '', ( 0.000000000000000, 0.000000000000000, 1.00000000000000 ) );
#479 = DIRECTION( '', ( 1.00000000000000, 0.000000000000000, 0.000000000000000 ) );
#480 = CARTESIAN_POINT( '', ( 0.000000000000000, 0.000000000000000, -47.5000000000000 ) );
#481 = DIRECTION( '', ( 0.000000000000000, 0.000000000000000, 1.00000000000000 ) );
#482 = DIRECTION( '', ( 1.00000000000000, 0.000000000000000, 0.000000000000000 ) );
#483 = CARTESIAN_POINT( '', ( 0.000000000000000, 0.000000000000000, -5.50000000000000 ) );
#484 = DIRECTION( '', ( 0.000000000000000, 0.000000000000000, 1.00000000000000 ) );
#485 = DIRECTION( '', ( 1.00000000000000, 0.000000000000000, 0.000000000000000 ) );
#486 = CARTESIAN_POINT( '', ( 1.27192439451880E-014, 0.000000000000000, -13.0000000000000 ) );
#487 = DIRECTION( '', ( 0.000000000000000, 0.000000000000000, 1.00000000000000 ) );
#488 = DIRECTION( '', ( 1.00000000000000, 0.000000000000000, 0.000000000000000 ) );
#489 = CARTESIAN_POINT( '', ( 0.000000000000000, 0.000000000000000, -56.5000000000000 ) );
#490 = DIRECTION( '', ( 0.000000000000000, 0.000000000000000, 1.00000000000000 ) );
#491 = DIRECTION( '', ( 1.00000000000000, 0.000000000000000, 0.000000000000000 ) );
#492 = CARTESIAN_POINT( '', ( 0.000000000000000, 0.000000000000000, -47.5000000000000 ) );
#493 = DIRECTION( '', ( 0.000000000000000, 0.000000000000000, 1.00000000000000 ) );
#494 = DIRECTION( '', ( 1.00000000000000, 0.000000000000000, 0.000000000000000 ) );
#495 = CARTESIAN_POINT( '', ( 1.27192439451880E-014, 0.000000000000000, -56.3368681246510 ) );
#496 = DIRECTION( '', ( 0.000000000000000, 0.000000000000000, -1.00000000000000 ) );
#497 = DIRECTION( '', ( -1.00000000000000, 0.000000000000000, 0.000000000000000 ) );
ENDSEC;
END-ISO-10303-21;
