ISO-10303-21;
HEADER;
FILE_DESCRIPTION( ( 'Unknown' ), '1' );
FILE_NAME( 'E:/98-Dis_3D_per_controllo/MCF/6139005_MCF17x40_M06x15/6139005_MCF17x40_M06x15.stp', 'Unknown', ( 'Unknown' ), ( 'Unknown' ), 'PSStep 11.0', 'Unknown', '  ' );
FILE_SCHEMA( ( 'AUTOMOTIVE_DESIGN { 1 0 10303 214 1 1 1 1 }' ) );
ENDSEC;
DATA;
#1 = MECHANICAL_DESIGN_GEOMETRIC_PRESENTATION_REPRESENTATION( ' ', ( #10, #11, #12, #13, #14, #15, #16, #17, #18, #19, #20, #21 ), #6 );
#2 = PRODUCT_DEFINITION_CONTEXT( '', #22, 'design' );
#3 = APPLICATION_PROTOCOL_DEFINITION( 'INTERNATIONAL STANDARD', 'automotive_design', 2001, #22 );
#4 = PRODUCT_CATEGORY_RELATIONSHIP( 'NONE', 'NONE', #23, #24 );
#5 = SHAPE_DEFINITION_REPRESENTATION( #25, #26 );
#6 =  ( GEOMETRIC_REPRESENTATION_CONTEXT( 3 )GLOBAL_UNCERTAINTY_ASSIGNED_CONTEXT( ( #29 ) )GLOBAL_UNIT_ASSIGNED_CONTEXT( ( #31, #32, #33 ) )REPRESENTATION_CONTEXT( 'NONE', 'WORKSPACE' ) );
#10 = STYLED_ITEM( '', ( #35 ), #36 );
#11 = STYLED_ITEM( '', ( #37 ), #38 );
#12 = STYLED_ITEM( '', ( #39 ), #40 );
#13 = STYLED_ITEM( '', ( #41 ), #42 );
#14 = STYLED_ITEM( '', ( #43 ), #44 );
#15 = STYLED_ITEM( '', ( #45 ), #46 );
#16 = STYLED_ITEM( '', ( #47 ), #48 );
#17 = STYLED_ITEM( '', ( #49 ), #50 );
#18 = STYLED_ITEM( '', ( #51 ), #52 );
#19 = STYLED_ITEM( '', ( #53 ), #54 );
#20 = STYLED_ITEM( '', ( #55 ), #56 );
#21 = STYLED_ITEM( '', ( #57 ), #58 );
#22 = APPLICATION_CONTEXT( 'core data for automotive mechanical design processes' );
#23 = PRODUCT_CATEGORY( 'part', 'NONE' );
#24 = PRODUCT_RELATED_PRODUCT_CATEGORY( 'detail', ' ', ( #59 ) );
#25 = PRODUCT_DEFINITION_SHAPE( 'NONE', 'NONE', #60 );
#26 = ADVANCED_BREP_SHAPE_REPRESENTATION( '8900067', ( #61, #62 ), #6 );
#29 = UNCERTAINTY_MEASURE_WITH_UNIT( LENGTH_MEASURE( 0.00100000000000000 ), #31, '', '' );
#31 =  ( CONVERSION_BASED_UNIT( 'MILLIMETRE', #65 )LENGTH_UNIT(  )NAMED_UNIT( #68 ) );
#32 =  ( NAMED_UNIT( #70 )PLANE_ANGLE_UNIT(  )SI_UNIT( $, .RADIAN. ) );
#33 =  ( NAMED_UNIT( #70 )SI_UNIT( $, .STERADIAN. )SOLID_ANGLE_UNIT(  ) );
#35 = PRESENTATION_STYLE_ASSIGNMENT( ( #76 ) );
#36 = ADVANCED_FACE( '', ( #77, #78 ), #79, .T. );
#37 = PRESENTATION_STYLE_ASSIGNMENT( ( #80 ) );
#38 = ADVANCED_FACE( '', ( #81, #82 ), #83, .F. );
#39 = PRESENTATION_STYLE_ASSIGNMENT( ( #84 ) );
#40 = ADVANCED_FACE( '', ( #85 ), #86, .F. );
#41 = PRESENTATION_STYLE_ASSIGNMENT( ( #87 ) );
#42 = ADVANCED_FACE( '', ( #88, #89 ), #90, .F. );
#43 = PRESENTATION_STYLE_ASSIGNMENT( ( #91 ) );
#44 = ADVANCED_FACE( '', ( #92, #93 ), #94, .F. );
#45 = PRESENTATION_STYLE_ASSIGNMENT( ( #95 ) );
#46 = ADVANCED_FACE( '', ( #96 ), #97, .T. );
#47 = PRESENTATION_STYLE_ASSIGNMENT( ( #98 ) );
#48 = ADVANCED_FACE( '', ( #99 ), #100, .F. );
#49 = PRESENTATION_STYLE_ASSIGNMENT( ( #101 ) );
#50 = ADVANCED_FACE( '', ( #102, #103 ), #104, .T. );
#51 = PRESENTATION_STYLE_ASSIGNMENT( ( #105 ) );
#52 = ADVANCED_FACE( '', ( #106, #107 ), #108, .T. );
#53 = PRESENTATION_STYLE_ASSIGNMENT( ( #109 ) );
#54 = ADVANCED_FACE( '', ( #110, #111 ), #112, .T. );
#55 = PRESENTATION_STYLE_ASSIGNMENT( ( #113 ) );
#56 = ADVANCED_FACE( '', ( #114, #115 ), #116, .T. );
#57 = PRESENTATION_STYLE_ASSIGNMENT( ( #117 ) );
#58 = ADVANCED_FACE( '', ( #118, #119 ), #120, .T. );
#59 = PRODUCT( '8900067', '8900067', 'PART-8900067-DESC', ( #121 ) );
#60 = PRODUCT_DEFINITION( 'NONE', 'NONE', #122, #2 );
#61 = BREP_WITH_VOIDS( '8900067', #123, ( #124 ) );
#62 = AXIS2_PLACEMENT_3D( '', #125, #126, #127 );
#65 = LENGTH_MEASURE_WITH_UNIT( LENGTH_MEASURE( 1.00000000000000 ), #128 );
#68 = DIMENSIONAL_EXPONENTS( 1.00000000000000, 0.000000000000000, 0.000000000000000, 0.000000000000000, 0.000000000000000, 0.000000000000000, 0.000000000000000 );
#70 = DIMENSIONAL_EXPONENTS( 0.000000000000000, 0.000000000000000, 0.000000000000000, 0.000000000000000, 0.000000000000000, 0.000000000000000, 0.000000000000000 );
#76 = SURFACE_STYLE_USAGE( .BOTH., #129 );
#77 = FACE_OUTER_BOUND( '', #130, .T. );
#78 = FACE_OUTER_BOUND( '', #131, .T. );
#79 = CYLINDRICAL_SURFACE( '', #132, 3.00000000000000 );
#80 = SURFACE_STYLE_USAGE( .BOTH., #133 );
#81 = FACE_OUTER_BOUND( '', #134, .T. );
#82 = FACE_BOUND( '', #135, .T. );
#83 = CONICAL_SURFACE( '', #136, 2.45850000000000, 1.04719755119660 );
#84 = SURFACE_STYLE_USAGE( .BOTH., #137 );
#85 = FACE_OUTER_BOUND( '', #138, .T. );
#86 = PLANE( '', #139 );
#87 = SURFACE_STYLE_USAGE( .BOTH., #140 );
#88 = FACE_BOUND( '', #141, .T. );
#89 = FACE_OUTER_BOUND( '', #142, .T. );
#90 = PLANE( '', #143 );
#91 = SURFACE_STYLE_USAGE( .BOTH., #144 );
#92 = FACE_OUTER_BOUND( '', #145, .T. );
#93 = FACE_OUTER_BOUND( '', #146, .T. );
#94 = CYLINDRICAL_SURFACE( '', #147, 2.45850000000000 );
#95 = SURFACE_STYLE_USAGE( .BOTH., #148 );
#96 = FACE_OUTER_BOUND( '', #149, .T. );
#97 = PLANE( '', #150 );
#98 = SURFACE_STYLE_USAGE( .BOTH., #151 );
#99 = FACE_OUTER_BOUND( '', #152, .T. );
#100 = PLANE( '', #153 );
#101 = SURFACE_STYLE_USAGE( .BOTH., #154 );
#102 = FACE_OUTER_BOUND( '', #155, .T. );
#103 = FACE_OUTER_BOUND( '', #156, .T. );
#104 = TOROIDAL_SURFACE( '', #157, 7.02938559833889, 0.500000000000000 );
#105 = SURFACE_STYLE_USAGE( .BOTH., #158 );
#106 = FACE_OUTER_BOUND( '', #159, .T. );
#107 = FACE_BOUND( '', #160, .T. );
#108 = CONICAL_SURFACE( '', #161, 2.50000000000000, 0.785398163397448 );
#109 = SURFACE_STYLE_USAGE( .BOTH., #162 );
#110 = FACE_OUTER_BOUND( '', #163, .T. );
#111 = FACE_OUTER_BOUND( '', #164, .T. );
#112 = CYLINDRICAL_SURFACE( '', #165, 8.50000000000000 );
#113 = SURFACE_STYLE_USAGE( .BOTH., #166 );
#114 = FACE_BOUND( '', #167, .T. );
#115 = FACE_OUTER_BOUND( '', #168, .T. );
#116 = CONICAL_SURFACE( '', #169, 7.50000000000000, 0.0605320197821074 );
#117 = SURFACE_STYLE_USAGE( .BOTH., #170 );
#118 = FACE_OUTER_BOUND( '', #171, .T. );
#119 = FACE_OUTER_BOUND( '', #172, .T. );
#120 = TOROIDAL_SURFACE( '', #173, 7.50000000000000, 1.00000000000000 );
#121 = PRODUCT_CONTEXT( '', #22, 'mechanical' );
#122 = PRODUCT_DEFINITION_FORMATION_WITH_SPECIFIED_SOURCE( ' ', 'NONE', #59, .NOT_KNOWN. );
#123 = CLOSED_SHELL( '', ( #42, #58, #52, #48, #50, #54, #56, #36, #46 ) );
#124 = ORIENTED_CLOSED_SHELL( '', *, #174, .T. );
#125 = CARTESIAN_POINT( '', ( 0.000000000000000, 0.000000000000000, 0.000000000000000 ) );
#126 = DIRECTION( '', ( 0.000000000000000, 0.000000000000000, 1.00000000000000 ) );
#127 = DIRECTION( '', ( 1.00000000000000, 0.000000000000000, 0.000000000000000 ) );
#128 =  ( LENGTH_UNIT(  )NAMED_UNIT( #68 )SI_UNIT( .MILLI., .METRE. ) );
#129 = SURFACE_SIDE_STYLE( '', ( #176 ) );
#130 = EDGE_LOOP( '', ( #177 ) );
#131 = EDGE_LOOP( '', ( #178 ) );
#132 = AXIS2_PLACEMENT_3D( '', #179, #180, #181 );
#133 = SURFACE_SIDE_STYLE( '', ( #182 ) );
#134 = EDGE_LOOP( '', ( #183 ) );
#135 = VERTEX_LOOP( '', #184 );
#136 = AXIS2_PLACEMENT_3D( '', #185, #186, #187 );
#137 = SURFACE_SIDE_STYLE( '', ( #188 ) );
#138 = EDGE_LOOP( '', ( #189 ) );
#139 = AXIS2_PLACEMENT_3D( '', #190, #191, #192 );
#140 = SURFACE_SIDE_STYLE( '', ( #193 ) );
#141 = EDGE_LOOP( '', ( #194 ) );
#142 = EDGE_LOOP( '', ( #195 ) );
#143 = AXIS2_PLACEMENT_3D( '', #196, #197, #198 );
#144 = SURFACE_SIDE_STYLE( '', ( #199 ) );
#145 = EDGE_LOOP( '', ( #200 ) );
#146 = EDGE_LOOP( '', ( #201 ) );
#147 = AXIS2_PLACEMENT_3D( '', #202, #203, #204 );
#148 = SURFACE_SIDE_STYLE( '', ( #205 ) );
#149 = EDGE_LOOP( '', ( #206 ) );
#150 = AXIS2_PLACEMENT_3D( '', #207, #208, #209 );
#151 = SURFACE_SIDE_STYLE( '', ( #210 ) );
#152 = EDGE_LOOP( '', ( #211 ) );
#153 = AXIS2_PLACEMENT_3D( '', #212, #213, #214 );
#154 = SURFACE_SIDE_STYLE( '', ( #215 ) );
#155 = EDGE_LOOP( '', ( #216 ) );
#156 = EDGE_LOOP( '', ( #217 ) );
#157 = AXIS2_PLACEMENT_3D( '', #218, #219, #220 );
#158 = SURFACE_SIDE_STYLE( '', ( #221 ) );
#159 = EDGE_LOOP( '', ( #222 ) );
#160 = EDGE_LOOP( '', ( #223 ) );
#161 = AXIS2_PLACEMENT_3D( '', #224, #225, #226 );
#162 = SURFACE_SIDE_STYLE( '', ( #227 ) );
#163 = EDGE_LOOP( '', ( #228 ) );
#164 = EDGE_LOOP( '', ( #229 ) );
#165 = AXIS2_PLACEMENT_3D( '', #230, #231, #232 );
#166 = SURFACE_SIDE_STYLE( '', ( #233 ) );
#167 = EDGE_LOOP( '', ( #234 ) );
#168 = EDGE_LOOP( '', ( #235 ) );
#169 = AXIS2_PLACEMENT_3D( '', #236, #237, #238 );
#170 = SURFACE_SIDE_STYLE( '', ( #239 ) );
#171 = EDGE_LOOP( '', ( #240 ) );
#172 = EDGE_LOOP( '', ( #241 ) );
#173 = AXIS2_PLACEMENT_3D( '', #242, #243, #244 );
#174 = CLOSED_SHELL( '', ( #38, #44, #40 ) );
#176 = SURFACE_STYLE_FILL_AREA( #245 );
#177 = ORIENTED_EDGE( '', *, *, #246, .T. );
#178 = ORIENTED_EDGE( '', *, *, #247, .F. );
#179 = CARTESIAN_POINT( '', ( -8.32667268468867E-016, 8.32667268468868E-016, 15.0000000000000 ) );
#180 = DIRECTION( '', ( -0.000000000000000, -0.000000000000000, 1.00000000000000 ) );
#181 = DIRECTION( '', ( -1.00000000000000, 0.000000000000000, 0.000000000000000 ) );
#182 = SURFACE_STYLE_FILL_AREA( #248 );
#183 = ORIENTED_EDGE( '', *, *, #249, .F. );
#184 = VERTEX_POINT( '', #250 );
#185 = CARTESIAN_POINT( '', ( 0.000000000000000, 0.000000000000000, 30.0000000000000 ) );
#186 = DIRECTION( '', ( 0.000000000000000, -0.000000000000000, -1.00000000000000 ) );
#187 = DIRECTION( '', ( 0.000000000000000, -1.00000000000000, 0.000000000000000 ) );
#188 = SURFACE_STYLE_FILL_AREA( #251 );
#189 = ORIENTED_EDGE( '', *, *, #252, .T. );
#190 = CARTESIAN_POINT( '', ( -8.32667268468867E-016, 8.32667268468868E-016, 15.0000000000000 ) );
#191 = DIRECTION( '', ( 0.000000000000000, 0.000000000000000, -1.00000000000000 ) );
#192 = DIRECTION( '', ( -1.00000000000000, 0.000000000000000, 0.000000000000000 ) );
#193 = SURFACE_STYLE_FILL_AREA( #253 );
#194 = ORIENTED_EDGE( '', *, *, #247, .T. );
#195 = ORIENTED_EDGE( '', *, *, #254, .T. );
#196 = CARTESIAN_POINT( '', ( 4.59227382683391E-016, 7.50000000000000, 5.53597017402888E-015 ) );
#197 = DIRECTION( '', ( 0.000000000000000, 0.000000000000000, 1.00000000000000 ) );
#198 = DIRECTION( '', ( 1.00000000000000, 0.000000000000000, 0.000000000000000 ) );
#199 = SURFACE_STYLE_FILL_AREA( #255 );
#200 = ORIENTED_EDGE( '', *, *, #249, .T. );
#201 = ORIENTED_EDGE( '', *, *, #252, .F. );
#202 = CARTESIAN_POINT( '', ( 0.000000000000000, 0.000000000000000, 3.74001638036095E-015 ) );
#203 = DIRECTION( '', ( -0.000000000000000, 0.000000000000000, -1.00000000000000 ) );
#204 = DIRECTION( '', ( 0.000000000000000, 1.00000000000000, 0.000000000000000 ) );
#205 = SURFACE_STYLE_FILL_AREA( #256 );
#206 = ORIENTED_EDGE( '', *, *, #257, .T. );
#207 = CARTESIAN_POINT( '', ( -8.32667268468867E-016, 8.32667268468868E-016, -15.0000000000000 ) );
#208 = DIRECTION( '', ( 0.000000000000000, 0.000000000000000, -1.00000000000000 ) );
#209 = DIRECTION( '', ( -1.00000000000000, 0.000000000000000, 0.000000000000000 ) );
#210 = SURFACE_STYLE_FILL_AREA( #258 );
#211 = ORIENTED_EDGE( '', *, *, #259, .T. );
#212 = CARTESIAN_POINT( '', ( 5.20457700374510E-016, 8.50000000000000, 40.0000000000000 ) );
#213 = DIRECTION( '', ( 0.000000000000000, 0.000000000000000, -1.00000000000000 ) );
#214 = DIRECTION( '', ( -1.00000000000000, 0.000000000000000, 0.000000000000000 ) );
#215 = SURFACE_STYLE_FILL_AREA( #260 );
#216 = ORIENTED_EDGE( '', *, *, #254, .F. );
#217 = ORIENTED_EDGE( '', *, *, #261, .F. );
#218 = CARTESIAN_POINT( '', ( 0.000000000000000, 0.000000000000000, 0.500000000000006 ) );
#219 = DIRECTION( '', ( 0.000000000000000, 0.000000000000000, 1.00000000000000 ) );
#220 = DIRECTION( '', ( 1.00000000000000, 0.000000000000000, 0.000000000000000 ) );
#221 = SURFACE_STYLE_FILL_AREA( #262 );
#222 = ORIENTED_EDGE( '', *, *, #246, .F. );
#223 = ORIENTED_EDGE( '', *, *, #257, .F. );
#224 = CARTESIAN_POINT( '', ( -8.32667268468867E-016, 8.32667268468868E-016, -15.0000000000000 ) );
#225 = DIRECTION( '', ( -0.000000000000000, -0.000000000000000, 1.00000000000000 ) );
#226 = DIRECTION( '', ( 1.00000000000000, 0.000000000000000, 0.000000000000000 ) );
#227 = SURFACE_STYLE_FILL_AREA( #263 );
#228 = ORIENTED_EDGE( '', *, *, #264, .T. );
#229 = ORIENTED_EDGE( '', *, *, #265, .T. );
#230 = CARTESIAN_POINT( '', ( 0.000000000000000, 0.000000000000000, 27.0000000000000 ) );
#231 = DIRECTION( '', ( -0.000000000000000, -0.000000000000000, -1.00000000000000 ) );
#232 = DIRECTION( '', ( 1.00000000000000, 0.000000000000000, 0.000000000000000 ) );
#233 = SURFACE_STYLE_FILL_AREA( #266 );
#234 = ORIENTED_EDGE( '', *, *, #261, .T. );
#235 = ORIENTED_EDGE( '', *, *, #265, .F. );
#236 = CARTESIAN_POINT( '', ( 0.000000000000000, 0.000000000000000, 3.46944695195362E-015 ) );
#237 = DIRECTION( '', ( -0.000000000000000, -0.000000000000000, 1.00000000000000 ) );
#238 = DIRECTION( '', ( 1.00000000000000, 0.000000000000000, 0.000000000000000 ) );
#239 = SURFACE_STYLE_FILL_AREA( #267 );
#240 = ORIENTED_EDGE( '', *, *, #264, .F. );
#241 = ORIENTED_EDGE( '', *, *, #259, .F. );
#242 = CARTESIAN_POINT( '', ( 0.000000000000000, 0.000000000000000, 39.0000000000000 ) );
#243 = DIRECTION( '', ( 0.000000000000000, 0.000000000000000, -1.00000000000000 ) );
#244 = DIRECTION( '', ( -1.00000000000000, 0.000000000000000, 0.000000000000000 ) );
#245 = FILL_AREA_STYLE( '', ( #268 ) );
#246 = EDGE_CURVE( '', #269, #269, #270, .F. );
#247 = EDGE_CURVE( '', #271, #271, #272, .T. );
#248 = FILL_AREA_STYLE( '', ( #273 ) );
#249 = EDGE_CURVE( '', #274, #274, #275, .T. );
#250 = CARTESIAN_POINT( '', ( 0.000000000000000, 0.000000000000000, 31.4194156368027 ) );
#251 = FILL_AREA_STYLE( '', ( #276 ) );
#252 = EDGE_CURVE( '', #277, #277, #278, .F. );
#253 = FILL_AREA_STYLE( '', ( #279 ) );
#254 = EDGE_CURVE( '', #280, #280, #281, .F. );
#255 = FILL_AREA_STYLE( '', ( #282 ) );
#256 = FILL_AREA_STYLE( '', ( #283 ) );
#257 = EDGE_CURVE( '', #284, #284, #285, .T. );
#258 = FILL_AREA_STYLE( '', ( #286 ) );
#259 = EDGE_CURVE( '', #287, #287, #288, .F. );
#260 = FILL_AREA_STYLE( '', ( #289 ) );
#261 = EDGE_CURVE( '', #290, #290, #291, .F. );
#262 = FILL_AREA_STYLE( '', ( #292 ) );
#263 = FILL_AREA_STYLE( '', ( #293 ) );
#264 = EDGE_CURVE( '', #294, #294, #295, .T. );
#265 = EDGE_CURVE( '', #296, #296, #297, .T. );
#266 = FILL_AREA_STYLE( '', ( #298 ) );
#267 = FILL_AREA_STYLE( '', ( #299 ) );
#268 = FILL_AREA_STYLE_COLOUR( '', #300 );
#269 = VERTEX_POINT( '', #301 );
#270 = CIRCLE( '', #302, 3.00000000000000 );
#271 = VERTEX_POINT( '', #303 );
#272 = CIRCLE( '', #304, 3.00000000000000 );
#273 = FILL_AREA_STYLE_COLOUR( '', #305 );
#274 = VERTEX_POINT( '', #306 );
#275 = CIRCLE( '', #307, 2.45850000000000 );
#276 = FILL_AREA_STYLE_COLOUR( '', #308 );
#277 = VERTEX_POINT( '', #309 );
#278 = CIRCLE( '', #310, 2.45850000000000 );
#279 = FILL_AREA_STYLE_COLOUR( '', #311 );
#280 = VERTEX_POINT( '', #312 );
#281 = CIRCLE( '', #313, 7.02938559833889 );
#282 = FILL_AREA_STYLE_COLOUR( '', #314 );
#283 = FILL_AREA_STYLE_COLOUR( '', #315 );
#284 = VERTEX_POINT( '', #316 );
#285 = CIRCLE( '', #317, 2.50000000000000 );
#286 = FILL_AREA_STYLE_COLOUR( '', #318 );
#287 = VERTEX_POINT( '', #319 );
#288 = CIRCLE( '', #320, 7.50000000000000 );
#289 = FILL_AREA_STYLE_COLOUR( '', #321 );
#290 = VERTEX_POINT( '', #322 );
#291 = CIRCLE( '', #323, 7.52846984665449 );
#292 = FILL_AREA_STYLE_COLOUR( '', #324 );
#293 = FILL_AREA_STYLE_COLOUR( '', #325 );
#294 = VERTEX_POINT( '', #326 );
#295 = CIRCLE( '', #327, 8.50000000000000 );
#296 = VERTEX_POINT( '', #328 );
#297 = CIRCLE( '', #329, 8.50000000000000 );
#298 = FILL_AREA_STYLE_COLOUR( '', #330 );
#299 = FILL_AREA_STYLE_COLOUR( '', #331 );
#300 = COLOUR_RGB( '', 0.752941191196442, 0.752941191196442, 0.752941191196442 );
#301 = CARTESIAN_POINT( '', ( -3.00000000000000, 8.32667268468868E-016, -14.5000000000000 ) );
#302 = AXIS2_PLACEMENT_3D( '', #332, #333, #334 );
#303 = CARTESIAN_POINT( '', ( 3.00000000000000, 8.32667268468868E-016, 5.20417042793042E-015 ) );
#304 = AXIS2_PLACEMENT_3D( '', #335, #336, #337 );
#305 = COLOUR_RGB( '', 0.200000002980232, 0.200000002980232, 0.200000002980232 );
#306 = CARTESIAN_POINT( '', ( 0.000000000000000, -2.45850000000000, 30.0000000000000 ) );
#307 = AXIS2_PLACEMENT_3D( '', #338, #339, #340 );
#308 = COLOUR_RGB( '', 0.666666686534882, 0.733333349227905, 0.866666674613953 );
#309 = CARTESIAN_POINT( '', ( -2.45850000000000, 0.000000000000000, 15.0000000000000 ) );
#310 = AXIS2_PLACEMENT_3D( '', #341, #342, #343 );
#311 = COLOUR_RGB( '', 0.200000002980232, 0.200000002980232, 0.200000002980232 );
#312 = CARTESIAN_POINT( '', ( 7.02938559833889, 0.000000000000000, 5.52943107967607E-015 ) );
#313 = AXIS2_PLACEMENT_3D( '', #344, #345, #346 );
#314 = COLOUR_RGB( '', 0.752941191196442, 0.752941191196442, 0.752941191196442 );
#315 = COLOUR_RGB( '', 0.666666686534882, 0.733333349227905, 0.866666674613953 );
#316 = CARTESIAN_POINT( '', ( -2.50000000000000, 8.32667268468868E-016, -15.0000000000000 ) );
#317 = AXIS2_PLACEMENT_3D( '', #347, #348, #349 );
#318 = COLOUR_RGB( '', 0.200000002980232, 0.200000002980232, 0.200000002980232 );
#319 = CARTESIAN_POINT( '', ( -7.50000000000000, 0.000000000000000, 40.0000000000000 ) );
#320 = AXIS2_PLACEMENT_3D( '', #350, #351, #352 );
#321 = COLOUR_RGB( '', 0.200000002980232, 0.200000002980232, 0.200000002980232 );
#322 = CARTESIAN_POINT( '', ( -7.52846984665449, 0.000000000000000, 0.469752469799065 ) );
#323 = AXIS2_PLACEMENT_3D( '', #353, #354, #355 );
#324 = COLOUR_RGB( '', 0.666666686534882, 0.733333349227905, 0.866666674613953 );
#325 = COLOUR_RGB( '', 0.200000002980232, 0.200000002980232, 0.200000002980232 );
#326 = CARTESIAN_POINT( '', ( -8.50000000000000, 0.000000000000000, 39.0000000000000 ) );
#327 = AXIS2_PLACEMENT_3D( '', #356, #357, #358 );
#328 = CARTESIAN_POINT( '', ( 8.50000000000000, 0.000000000000000, 16.5000000000000 ) );
#329 = AXIS2_PLACEMENT_3D( '', #359, #360, #361 );
#330 = COLOUR_RGB( '', 0.200000002980232, 0.200000002980232, 0.200000002980232 );
#331 = COLOUR_RGB( '', 0.200000002980232, 0.200000002980232, 0.200000002980232 );
#332 = CARTESIAN_POINT( '', ( -8.32667268468867E-016, 8.32667268468868E-016, -14.5000000000000 ) );
#333 = DIRECTION( '', ( 0.000000000000000, 0.000000000000000, -1.00000000000000 ) );
#334 = DIRECTION( '', ( -1.00000000000000, 0.000000000000000, 0.000000000000000 ) );
#335 = CARTESIAN_POINT( '', ( -8.32667268468867E-016, 8.32667268468868E-016, 5.20417042793042E-015 ) );
#336 = DIRECTION( '', ( 0.000000000000000, 0.000000000000000, 1.00000000000000 ) );
#337 = DIRECTION( '', ( 1.00000000000000, 0.000000000000000, 0.000000000000000 ) );
#338 = CARTESIAN_POINT( '', ( 0.000000000000000, 0.000000000000000, 30.0000000000000 ) );
#339 = DIRECTION( '', ( 0.000000000000000, 0.000000000000000, 1.00000000000000 ) );
#340 = DIRECTION( '', ( 0.000000000000000, -1.00000000000000, 0.000000000000000 ) );
#341 = CARTESIAN_POINT( '', ( 0.000000000000000, 0.000000000000000, 15.0000000000000 ) );
#342 = DIRECTION( '', ( 0.000000000000000, 0.000000000000000, -1.00000000000000 ) );
#343 = DIRECTION( '', ( -1.00000000000000, 0.000000000000000, 0.000000000000000 ) );
#344 = CARTESIAN_POINT( '', ( 0.000000000000000, 0.000000000000000, 5.52943107967607E-015 ) );
#345 = DIRECTION( '', ( 0.000000000000000, 0.000000000000000, 1.00000000000000 ) );
#346 = DIRECTION( '', ( 1.00000000000000, 0.000000000000000, 0.000000000000000 ) );
#347 = CARTESIAN_POINT( '', ( -8.32667268468867E-016, 8.32667268468868E-016, -15.0000000000000 ) );
#348 = DIRECTION( '', ( 0.000000000000000, 0.000000000000000, -1.00000000000000 ) );
#349 = DIRECTION( '', ( -1.00000000000000, 0.000000000000000, 0.000000000000000 ) );
#350 = CARTESIAN_POINT( '', ( 0.000000000000000, 0.000000000000000, 40.0000000000000 ) );
#351 = DIRECTION( '', ( 0.000000000000000, 0.000000000000000, -1.00000000000000 ) );
#352 = DIRECTION( '', ( -1.00000000000000, 0.000000000000000, 0.000000000000000 ) );
#353 = CARTESIAN_POINT( '', ( 0.000000000000000, 0.000000000000000, 0.469752469799065 ) );
#354 = DIRECTION( '', ( 0.000000000000000, 0.000000000000000, -1.00000000000000 ) );
#355 = DIRECTION( '', ( -1.00000000000000, 0.000000000000000, 0.000000000000000 ) );
#356 = CARTESIAN_POINT( '', ( 0.000000000000000, 0.000000000000000, 39.0000000000000 ) );
#357 = DIRECTION( '', ( 0.000000000000000, 0.000000000000000, -1.00000000000000 ) );
#358 = DIRECTION( '', ( -1.00000000000000, 0.000000000000000, 0.000000000000000 ) );
#359 = CARTESIAN_POINT( '', ( 0.000000000000000, 0.000000000000000, 16.5000000000000 ) );
#360 = DIRECTION( '', ( 0.000000000000000, 0.000000000000000, 1.00000000000000 ) );
#361 = DIRECTION( '', ( 1.00000000000000, 0.000000000000000, 0.000000000000000 ) );
ENDSEC;
END-ISO-10303-21;
