ISO-10303-21;
HEADER;
FILE_DESCRIPTION( ( 'Unknown' ), '1' );
FILE_NAME( 'E:/98-Dis_3D_per_controllo/MCF/6139006_MCF21x50_M06x15/6139006_MCF21x50_M06x15.stp', 'Unknown', ( 'Unknown' ), ( 'Unknown' ), 'PSStep 11.0', 'Unknown', '  ' );
FILE_SCHEMA( ( 'AUTOMOTIVE_DESIGN { 1 0 10303 214 1 1 1 1 }' ) );
ENDSEC;
DATA;
#1 = MECHANICAL_DESIGN_GEOMETRIC_PRESENTATION_REPRESENTATION( ' ', ( #10, #11, #12, #13, #14, #15, #16, #17, #18, #19, #20, #21, #22 ), #6 );
#2 = PRODUCT_DEFINITION_CONTEXT( '', #23, 'design' );
#3 = APPLICATION_PROTOCOL_DEFINITION( 'INTERNATIONAL STANDARD', 'automotive_design', 2001, #23 );
#4 = PRODUCT_CATEGORY_RELATIONSHIP( 'NONE', 'NONE', #24, #25 );
#5 = SHAPE_DEFINITION_REPRESENTATION( #26, #27 );
#6 =  ( GEOMETRIC_REPRESENTATION_CONTEXT( 3 )GLOBAL_UNCERTAINTY_ASSIGNED_CONTEXT( ( #30 ) )GLOBAL_UNIT_ASSIGNED_CONTEXT( ( #32, #33, #34 ) )REPRESENTATION_CONTEXT( 'NONE', 'WORKSPACE' ) );
#10 = STYLED_ITEM( '', ( #36 ), #37 );
#11 = STYLED_ITEM( '', ( #38 ), #39 );
#12 = STYLED_ITEM( '', ( #40 ), #41 );
#13 = STYLED_ITEM( '', ( #42 ), #43 );
#14 = STYLED_ITEM( '', ( #44 ), #45 );
#15 = STYLED_ITEM( '', ( #46 ), #47 );
#16 = STYLED_ITEM( '', ( #48 ), #49 );
#17 = STYLED_ITEM( '', ( #50 ), #51 );
#18 = STYLED_ITEM( '', ( #52 ), #53 );
#19 = STYLED_ITEM( '', ( #54 ), #55 );
#20 = STYLED_ITEM( '', ( #56 ), #57 );
#21 = STYLED_ITEM( '', ( #58 ), #59 );
#22 = STYLED_ITEM( '', ( #60 ), #61 );
#23 = APPLICATION_CONTEXT( 'core data for automotive mechanical design processes' );
#24 = PRODUCT_CATEGORY( 'part', 'NONE' );
#25 = PRODUCT_RELATED_PRODUCT_CATEGORY( 'detail', ' ', ( #62 ) );
#26 = PRODUCT_DEFINITION_SHAPE( 'NONE', 'NONE', #63 );
#27 = ADVANCED_BREP_SHAPE_REPRESENTATION( '6136012_MC21x50', ( #64, #65 ), #6 );
#30 = UNCERTAINTY_MEASURE_WITH_UNIT( LENGTH_MEASURE( 0.00100000000000000 ), #32, '', '' );
#32 =  ( CONVERSION_BASED_UNIT( 'MILLIMETRE', #68 )LENGTH_UNIT(  )NAMED_UNIT( #71 ) );
#33 =  ( NAMED_UNIT( #73 )PLANE_ANGLE_UNIT(  )SI_UNIT( $, .RADIAN. ) );
#34 =  ( NAMED_UNIT( #73 )SI_UNIT( $, .STERADIAN. )SOLID_ANGLE_UNIT(  ) );
#36 = PRESENTATION_STYLE_ASSIGNMENT( ( #79 ) );
#37 = ADVANCED_FACE( '', ( #80, #81 ), #82, .T. );
#38 = PRESENTATION_STYLE_ASSIGNMENT( ( #83 ) );
#39 = ADVANCED_FACE( '', ( #84, #85 ), #86, .F. );
#40 = PRESENTATION_STYLE_ASSIGNMENT( ( #87 ) );
#41 = ADVANCED_FACE( '', ( #88 ), #89, .F. );
#42 = PRESENTATION_STYLE_ASSIGNMENT( ( #90 ) );
#43 = ADVANCED_FACE( '', ( #91, #92 ), #93, .F. );
#44 = PRESENTATION_STYLE_ASSIGNMENT( ( #94 ) );
#45 = ADVANCED_FACE( '', ( #95 ), #96, .F. );
#46 = PRESENTATION_STYLE_ASSIGNMENT( ( #97 ) );
#47 = ADVANCED_FACE( '', ( #98 ), #99, .T. );
#48 = PRESENTATION_STYLE_ASSIGNMENT( ( #100 ) );
#49 = ADVANCED_FACE( '', ( #101, #102 ), #103, .T. );
#50 = PRESENTATION_STYLE_ASSIGNMENT( ( #104 ) );
#51 = ADVANCED_FACE( '', ( #105, #106 ), #107, .T. );
#52 = PRESENTATION_STYLE_ASSIGNMENT( ( #108 ) );
#53 = ADVANCED_FACE( '', ( #109, #110 ), #111, .T. );
#54 = PRESENTATION_STYLE_ASSIGNMENT( ( #112 ) );
#55 = ADVANCED_FACE( '', ( #113, #114 ), #115, .T. );
#56 = PRESENTATION_STYLE_ASSIGNMENT( ( #116 ) );
#57 = ADVANCED_FACE( '', ( #117, #118 ), #119, .F. );
#58 = PRESENTATION_STYLE_ASSIGNMENT( ( #120 ) );
#59 = ADVANCED_FACE( '', ( #121, #122 ), #123, .T. );
#60 = PRESENTATION_STYLE_ASSIGNMENT( ( #124 ) );
#61 = ADVANCED_FACE( '', ( #125, #126 ), #127, .T. );
#62 = PRODUCT( '6136012_MC21x50', '6136012_MC21x50', 'PART-6136012_MC21x50-DESC', ( #128 ) );
#63 = PRODUCT_DEFINITION( 'NONE', 'NONE', #129, #2 );
#64 = BREP_WITH_VOIDS( '6136012_MC21x50', #130, ( #131 ) );
#65 = AXIS2_PLACEMENT_3D( '', #132, #133, #134 );
#68 = LENGTH_MEASURE_WITH_UNIT( LENGTH_MEASURE( 1.00000000000000 ), #135 );
#71 = DIMENSIONAL_EXPONENTS( 1.00000000000000, 0.000000000000000, 0.000000000000000, 0.000000000000000, 0.000000000000000, 0.000000000000000, 0.000000000000000 );
#73 = DIMENSIONAL_EXPONENTS( 0.000000000000000, 0.000000000000000, 0.000000000000000, 0.000000000000000, 0.000000000000000, 0.000000000000000, 0.000000000000000 );
#79 = SURFACE_STYLE_USAGE( .BOTH., #136 );
#80 = FACE_OUTER_BOUND( '', #137, .T. );
#81 = FACE_OUTER_BOUND( '', #138, .T. );
#82 = CYLINDRICAL_SURFACE( '', #139, 3.00000000000000 );
#83 = SURFACE_STYLE_USAGE( .BOTH., #140 );
#84 = FACE_OUTER_BOUND( '', #141, .T. );
#85 = FACE_BOUND( '', #142, .T. );
#86 = CONICAL_SURFACE( '', #143, 2.45850000000000, 1.02974425867665 );
#87 = SURFACE_STYLE_USAGE( .BOTH., #144 );
#88 = FACE_OUTER_BOUND( '', #145, .T. );
#89 = PLANE( '', #146 );
#90 = SURFACE_STYLE_USAGE( .BOTH., #147 );
#91 = FACE_BOUND( '', #148, .T. );
#92 = FACE_OUTER_BOUND( '', #149, .T. );
#93 = PLANE( '', #150 );
#94 = SURFACE_STYLE_USAGE( .BOTH., #151 );
#95 = FACE_OUTER_BOUND( '', #152, .T. );
#96 = PLANE( '', #153 );
#97 = SURFACE_STYLE_USAGE( .BOTH., #154 );
#98 = FACE_OUTER_BOUND( '', #155, .T. );
#99 = PLANE( '', #156 );
#100 = SURFACE_STYLE_USAGE( .BOTH., #157 );
#101 = FACE_OUTER_BOUND( '', #158, .T. );
#102 = FACE_OUTER_BOUND( '', #159, .T. );
#103 = TOROIDAL_SURFACE( '', #160, 3.45850000000000, 1.00000000000000 );
#104 = SURFACE_STYLE_USAGE( .BOTH., #161 );
#105 = FACE_OUTER_BOUND( '', #162, .T. );
#106 = FACE_BOUND( '', #163, .T. );
#107 = CONICAL_SURFACE( '', #164, 10.3500000000000, 0.00535709160984768 );
#108 = SURFACE_STYLE_USAGE( .BOTH., #165 );
#109 = FACE_OUTER_BOUND( '', #166, .T. );
#110 = FACE_OUTER_BOUND( '', #167, .T. );
#111 = TOROIDAL_SURFACE( '', #168, 7.67638670372939, 1.00000000000000 );
#112 = SURFACE_STYLE_USAGE( .BOTH., #169 );
#113 = FACE_OUTER_BOUND( '', #170, .T. );
#114 = FACE_BOUND( '', #171, .T. );
#115 = CONICAL_SURFACE( '', #172, 8.67323789920220, 0.0793783145595736 );
#116 = SURFACE_STYLE_USAGE( .BOTH., #173 );
#117 = FACE_OUTER_BOUND( '', #174, .T. );
#118 = FACE_OUTER_BOUND( '', #175, .T. );
#119 = CYLINDRICAL_SURFACE( '', #176, 2.45850000000000 );
#120 = SURFACE_STYLE_USAGE( .BOTH., #177 );
#121 = FACE_OUTER_BOUND( '', #178, .T. );
#122 = FACE_BOUND( '', #179, .T. );
#123 = CONICAL_SURFACE( '', #180, 2.50000000000000, 0.785398163397448 );
#124 = SURFACE_STYLE_USAGE( .BOTH., #181 );
#125 = FACE_OUTER_BOUND( '', #182, .T. );
#126 = FACE_OUTER_BOUND( '', #183, .T. );
#127 = TOROIDAL_SURFACE( '', #184, 9.49462850775602, 1.00000000000000 );
#128 = PRODUCT_CONTEXT( '', #23, 'mechanical' );
#129 = PRODUCT_DEFINITION_FORMATION_WITH_SPECIFIED_SOURCE( ' ', 'NONE', #62, .NOT_KNOWN. );
#130 = CLOSED_SHELL( '', ( #53, #61, #59, #43, #49, #45, #51, #55, #37, #47 ) );
#131 = ORIENTED_CLOSED_SHELL( '', *, #185, .T. );
#132 = CARTESIAN_POINT( '', ( 0.000000000000000, 0.000000000000000, 0.000000000000000 ) );
#133 = DIRECTION( '', ( 0.000000000000000, 0.000000000000000, 1.00000000000000 ) );
#134 = DIRECTION( '', ( 1.00000000000000, 0.000000000000000, 0.000000000000000 ) );
#135 =  ( LENGTH_UNIT(  )NAMED_UNIT( #71 )SI_UNIT( .MILLI., .METRE. ) );
#136 = SURFACE_SIDE_STYLE( '', ( #187 ) );
#137 = EDGE_LOOP( '', ( #188 ) );
#138 = EDGE_LOOP( '', ( #189 ) );
#139 = AXIS2_PLACEMENT_3D( '', #190, #191, #192 );
#140 = SURFACE_SIDE_STYLE( '', ( #193 ) );
#141 = EDGE_LOOP( '', ( #194 ) );
#142 = VERTEX_LOOP( '', #195 );
#143 = AXIS2_PLACEMENT_3D( '', #196, #197, #198 );
#144 = SURFACE_SIDE_STYLE( '', ( #199 ) );
#145 = EDGE_LOOP( '', ( #200 ) );
#146 = AXIS2_PLACEMENT_3D( '', #201, #202, #203 );
#147 = SURFACE_SIDE_STYLE( '', ( #204 ) );
#148 = EDGE_LOOP( '', ( #205 ) );
#149 = EDGE_LOOP( '', ( #206 ) );
#150 = AXIS2_PLACEMENT_3D( '', #207, #208, #209 );
#151 = SURFACE_SIDE_STYLE( '', ( #210 ) );
#152 = EDGE_LOOP( '', ( #211 ) );
#153 = AXIS2_PLACEMENT_3D( '', #212, #213, #214 );
#154 = SURFACE_SIDE_STYLE( '', ( #215 ) );
#155 = EDGE_LOOP( '', ( #216 ) );
#156 = AXIS2_PLACEMENT_3D( '', #217, #218, #219 );
#157 = SURFACE_SIDE_STYLE( '', ( #220 ) );
#158 = EDGE_LOOP( '', ( #221 ) );
#159 = EDGE_LOOP( '', ( #222 ) );
#160 = AXIS2_PLACEMENT_3D( '', #223, #224, #225 );
#161 = SURFACE_SIDE_STYLE( '', ( #226 ) );
#162 = EDGE_LOOP( '', ( #227 ) );
#163 = EDGE_LOOP( '', ( #228 ) );
#164 = AXIS2_PLACEMENT_3D( '', #229, #230, #231 );
#165 = SURFACE_SIDE_STYLE( '', ( #232 ) );
#166 = EDGE_LOOP( '', ( #233 ) );
#167 = EDGE_LOOP( '', ( #234 ) );
#168 = AXIS2_PLACEMENT_3D( '', #235, #236, #237 );
#169 = SURFACE_SIDE_STYLE( '', ( #238 ) );
#170 = EDGE_LOOP( '', ( #239 ) );
#171 = EDGE_LOOP( '', ( #240 ) );
#172 = AXIS2_PLACEMENT_3D( '', #241, #242, #243 );
#173 = SURFACE_SIDE_STYLE( '', ( #244 ) );
#174 = EDGE_LOOP( '', ( #245 ) );
#175 = EDGE_LOOP( '', ( #246 ) );
#176 = AXIS2_PLACEMENT_3D( '', #247, #248, #249 );
#177 = SURFACE_SIDE_STYLE( '', ( #250 ) );
#178 = EDGE_LOOP( '', ( #251 ) );
#179 = EDGE_LOOP( '', ( #252 ) );
#180 = AXIS2_PLACEMENT_3D( '', #253, #254, #255 );
#181 = SURFACE_SIDE_STYLE( '', ( #256 ) );
#182 = EDGE_LOOP( '', ( #257 ) );
#183 = EDGE_LOOP( '', ( #258 ) );
#184 = AXIS2_PLACEMENT_3D( '', #259, #260, #261 );
#185 = CLOSED_SHELL( '', ( #39, #57, #41 ) );
#187 = SURFACE_STYLE_FILL_AREA( #262 );
#188 = ORIENTED_EDGE( '', *, *, #263, .T. );
#189 = ORIENTED_EDGE( '', *, *, #264, .T. );
#190 = CARTESIAN_POINT( '', ( 8.32667268468867E-016, 8.32667268468867E-016, 15.0000000000000 ) );
#191 = DIRECTION( '', ( 5.55111512312578E-017, 5.55111512312578E-017, 1.00000000000000 ) );
#192 = DIRECTION( '', ( 0.000000000000000, -1.00000000000000, 5.55111512312578E-017 ) );
#193 = SURFACE_STYLE_FILL_AREA( #265 );
#194 = ORIENTED_EDGE( '', *, *, #266, .F. );
#195 = VERTEX_POINT( '', #267 );
#196 = CARTESIAN_POINT( '', ( -2.35850604691338E-047, -3.85185988877447E-031, 30.0000000000000 ) );
#197 = DIRECTION( '', ( 0.000000000000000, -0.000000000000000, -1.00000000000000 ) );
#198 = DIRECTION( '', ( 0.000000000000000, -1.00000000000000, 0.000000000000000 ) );
#199 = SURFACE_STYLE_FILL_AREA( #268 );
#200 = ORIENTED_EDGE( '', *, *, #269, .T. );
#201 = CARTESIAN_POINT( '', ( 8.32667268468867E-016, 8.32667268468867E-016, 15.0000000000000 ) );
#202 = DIRECTION( '', ( -5.55111512312578E-017, -5.55111512312578E-017, -1.00000000000000 ) );
#203 = DIRECTION( '', ( 0.000000000000000, -1.00000000000000, 5.55111512312578E-017 ) );
#204 = SURFACE_STYLE_FILL_AREA( #270 );
#205 = ORIENTED_EDGE( '', *, *, #271, .T. );
#206 = ORIENTED_EDGE( '', *, *, #272, .F. );
#207 = CARTESIAN_POINT( '', ( 4.70027596589231E-016, 7.67638670372939, 1.25081334425247E-014 ) );
#208 = DIRECTION( '', ( 0.000000000000000, 0.000000000000000, 1.00000000000000 ) );
#209 = DIRECTION( '', ( 1.00000000000000, 0.000000000000000, 0.000000000000000 ) );
#210 = SURFACE_STYLE_FILL_AREA( #273 );
#211 = ORIENTED_EDGE( '', *, *, #274, .T. );
#212 = CARTESIAN_POINT( '', ( 6.42918335756748E-016, 10.5000000000000, 50.0000000000000 ) );
#213 = DIRECTION( '', ( 0.000000000000000, 0.000000000000000, -1.00000000000000 ) );
#214 = DIRECTION( '', ( -1.00000000000000, 0.000000000000000, 0.000000000000000 ) );
#215 = SURFACE_STYLE_FILL_AREA( #275 );
#216 = ORIENTED_EDGE( '', *, *, #276, .T. );
#217 = CARTESIAN_POINT( '', ( -8.32667268468868E-016, -8.32667268468868E-016, -15.0000000000000 ) );
#218 = DIRECTION( '', ( -5.55111512312578E-017, -5.55111512312578E-017, -1.00000000000000 ) );
#219 = DIRECTION( '', ( 0.000000000000000, -1.00000000000000, 5.55111512312578E-017 ) );
#220 = SURFACE_STYLE_FILL_AREA( #277 );
#221 = ORIENTED_EDGE( '', *, *, #263, .F. );
#222 = ORIENTED_EDGE( '', *, *, #271, .F. );
#223 = CARTESIAN_POINT( '', ( -2.35850604691338E-047, -3.85185988877447E-031, 1.00000000000001 ) );
#224 = DIRECTION( '', ( 0.000000000000000, 0.000000000000000, 1.00000000000000 ) );
#225 = DIRECTION( '', ( 1.00000000000000, 0.000000000000000, 0.000000000000000 ) );
#226 = SURFACE_STYLE_FILL_AREA( #278 );
#227 = ORIENTED_EDGE( '', *, *, #279, .T. );
#228 = ORIENTED_EDGE( '', *, *, #280, .T. );
#229 = CARTESIAN_POINT( '', ( -2.35850604691338E-047, -3.85185988877447E-031, 22.0000000000000 ) );
#230 = DIRECTION( '', ( -0.000000000000000, -0.000000000000000, 1.00000000000000 ) );
#231 = DIRECTION( '', ( 1.00000000000000, 0.000000000000000, 0.000000000000000 ) );
#232 = SURFACE_STYLE_FILL_AREA( #281 );
#233 = ORIENTED_EDGE( '', *, *, #282, .F. );
#234 = ORIENTED_EDGE( '', *, *, #272, .T. );
#235 = CARTESIAN_POINT( '', ( 0.000000000000000, 0.000000000000000, 1.00000000000000 ) );
#236 = DIRECTION( '', ( 0.000000000000000, 0.000000000000000, 1.00000000000000 ) );
#237 = DIRECTION( '', ( 1.00000000000000, 0.000000000000000, 0.000000000000000 ) );
#238 = SURFACE_STYLE_FILL_AREA( #283 );
#239 = ORIENTED_EDGE( '', *, *, #280, .F. );
#240 = ORIENTED_EDGE( '', *, *, #282, .T. );
#241 = CARTESIAN_POINT( '', ( -2.35850604691338E-047, -3.85185988877447E-031, 0.920705018541940 ) );
#242 = DIRECTION( '', ( -0.000000000000000, -0.000000000000000, 1.00000000000000 ) );
#243 = DIRECTION( '', ( 1.00000000000000, 0.000000000000000, 0.000000000000000 ) );
#244 = SURFACE_STYLE_FILL_AREA( #284 );
#245 = ORIENTED_EDGE( '', *, *, #266, .T. );
#246 = ORIENTED_EDGE( '', *, *, #269, .F. );
#247 = CARTESIAN_POINT( '', ( -2.35850604691338E-047, -3.85185988877447E-031, 1.25085407526662E-014 ) );
#248 = DIRECTION( '', ( -0.000000000000000, 0.000000000000000, -1.00000000000000 ) );
#249 = DIRECTION( '', ( 0.000000000000000, 1.00000000000000, 0.000000000000000 ) );
#250 = SURFACE_STYLE_FILL_AREA( #285 );
#251 = ORIENTED_EDGE( '', *, *, #264, .F. );
#252 = ORIENTED_EDGE( '', *, *, #276, .F. );
#253 = CARTESIAN_POINT( '', ( -8.32667268468868E-016, -8.32667268468868E-016, -15.0000000000000 ) );
#254 = DIRECTION( '', ( 5.55111512312578E-017, 5.55111512312578E-017, 1.00000000000000 ) );
#255 = DIRECTION( '', ( 0.000000000000000, 1.00000000000000, -5.55111512312578E-017 ) );
#256 = SURFACE_STYLE_FILL_AREA( #286 );
#257 = ORIENTED_EDGE( '', *, *, #279, .F. );
#258 = ORIENTED_EDGE( '', *, *, #274, .F. );
#259 = CARTESIAN_POINT( '', ( -2.35850604691338E-047, -3.85185988877447E-031, 49.0000000000000 ) );
#260 = DIRECTION( '', ( 0.000000000000000, 0.000000000000000, -1.00000000000000 ) );
#261 = DIRECTION( '', ( -1.00000000000000, 0.000000000000000, 0.000000000000000 ) );
#262 = FILL_AREA_STYLE( '', ( #287 ) );
#263 = EDGE_CURVE( '', #288, #288, #289, .F. );
#264 = EDGE_CURVE( '', #290, #290, #291, .F. );
#265 = FILL_AREA_STYLE( '', ( #292 ) );
#266 = EDGE_CURVE( '', #293, #293, #294, .T. );
#267 = CARTESIAN_POINT( '', ( -2.35850604691338E-047, -3.85185988877447E-031, 31.4772158318792 ) );
#268 = FILL_AREA_STYLE( '', ( #295 ) );
#269 = EDGE_CURVE( '', #296, #296, #297, .F. );
#270 = FILL_AREA_STYLE( '', ( #298 ) );
#271 = EDGE_CURVE( '', #299, #299, #300, .T. );
#272 = EDGE_CURVE( '', #301, #301, #302, .T. );
#273 = FILL_AREA_STYLE( '', ( #303 ) );
#274 = EDGE_CURVE( '', #304, #304, #305, .F. );
#275 = FILL_AREA_STYLE( '', ( #306 ) );
#276 = EDGE_CURVE( '', #307, #307, #308, .T. );
#277 = FILL_AREA_STYLE( '', ( #309 ) );
#278 = FILL_AREA_STYLE( '', ( #310 ) );
#279 = EDGE_CURVE( '', #311, #311, #312, .T. );
#280 = EDGE_CURVE( '', #313, #313, #314, .T. );
#281 = FILL_AREA_STYLE( '', ( #315 ) );
#282 = EDGE_CURVE( '', #316, #316, #317, .T. );
#283 = FILL_AREA_STYLE( '', ( #318 ) );
#284 = FILL_AREA_STYLE( '', ( #319 ) );
#285 = FILL_AREA_STYLE( '', ( #320 ) );
#286 = FILL_AREA_STYLE( '', ( #321 ) );
#287 = FILL_AREA_STYLE_COLOUR( '', #322 );
#288 = VERTEX_POINT( '', #323 );
#289 = CIRCLE( '', #324, 3.00000000000000 );
#290 = VERTEX_POINT( '', #325 );
#291 = CIRCLE( '', #326, 3.00000000000000 );
#292 = FILL_AREA_STYLE_COLOUR( '', #327 );
#293 = VERTEX_POINT( '', #328 );
#294 = CIRCLE( '', #329, 2.45850000000000 );
#295 = FILL_AREA_STYLE_COLOUR( '', #330 );
#296 = VERTEX_POINT( '', #331 );
#297 = CIRCLE( '', #332, 2.45850000000000 );
#298 = FILL_AREA_STYLE_COLOUR( '', #333 );
#299 = VERTEX_POINT( '', #334 );
#300 = CIRCLE( '', #335, 3.45850000000000 );
#301 = VERTEX_POINT( '', #336 );
#302 = CIRCLE( '', #337, 7.67638670372939 );
#303 = FILL_AREA_STYLE_COLOUR( '', #338 );
#304 = VERTEX_POINT( '', #339 );
#305 = CIRCLE( '', #340, 9.49462850775602 );
#306 = FILL_AREA_STYLE_COLOUR( '', #341 );
#307 = VERTEX_POINT( '', #342 );
#308 = CIRCLE( '', #343, 2.50000000000000 );
#309 = FILL_AREA_STYLE_COLOUR( '', #344 );
#310 = FILL_AREA_STYLE_COLOUR( '', #345 );
#311 = VERTEX_POINT( '', #346 );
#312 = CIRCLE( '', #347, 10.4946141585751 );
#313 = VERTEX_POINT( '', #348 );
#314 = CIRCLE( '', #349, 10.3500000000000 );
#315 = FILL_AREA_STYLE_COLOUR( '', #350 );
#316 = VERTEX_POINT( '', #351 );
#317 = CIRCLE( '', #352, 8.67323789920220 );
#318 = FILL_AREA_STYLE_COLOUR( '', #353 );
#319 = FILL_AREA_STYLE_COLOUR( '', #354 );
#320 = FILL_AREA_STYLE_COLOUR( '', #355 );
#321 = FILL_AREA_STYLE_COLOUR( '', #356 );
#322 = COLOUR_RGB( '', 0.752941191196442, 0.752941191196442, 0.752941191196442 );
#323 = CARTESIAN_POINT( '', ( 3.00000000000000, -3.85185988877447E-031, 0.111305592456002 ) );
#324 = AXIS2_PLACEMENT_3D( '', #357, #358, #359 );
#325 = CARTESIAN_POINT( '', ( -8.04911692853239E-016, -3.00000000000000, -14.5000000000000 ) );
#326 = AXIS2_PLACEMENT_3D( '', #360, #361, #362 );
#327 = COLOUR_RGB( '', 0.200000002980232, 0.200000002980232, 0.200000002980232 );
#328 = CARTESIAN_POINT( '', ( -2.35850604691338E-047, -2.45850000000000, 30.0000000000000 ) );
#329 = AXIS2_PLACEMENT_3D( '', #363, #364, #365 );
#330 = COLOUR_RGB( '', 0.666666686534882, 0.733333349227905, 0.866666674613953 );
#331 = CARTESIAN_POINT( '', ( -2.45850000000000, -3.85185988877447E-031, 15.0000000000000 ) );
#332 = AXIS2_PLACEMENT_3D( '', #366, #367, #368 );
#333 = COLOUR_RGB( '', 0.200000002980232, 0.200000002980232, 0.200000002980232 );
#334 = CARTESIAN_POINT( '', ( 3.45850000000000, -3.85185988877447E-031, 1.25767452008318E-014 ) );
#335 = AXIS2_PLACEMENT_3D( '', #369, #370, #371 );
#336 = CARTESIAN_POINT( '', ( 7.67638670372939, -3.85185988877447E-031, 6.93889390390723E-015 ) );
#337 = AXIS2_PLACEMENT_3D( '', #372, #373, #374 );
#338 = COLOUR_RGB( '', 0.200000002980232, 0.200000002980232, 0.200000002980232 );
#339 = CARTESIAN_POINT( '', ( -9.49462850775602, -3.85185988877447E-031, 50.0000000000000 ) );
#340 = AXIS2_PLACEMENT_3D( '', #375, #376, #377 );
#341 = COLOUR_RGB( '', 0.666666686534882, 0.733333349227905, 0.866666674613953 );
#342 = CARTESIAN_POINT( '', ( -8.32667268468868E-016, -2.50000000000000, -15.0000000000000 ) );
#343 = AXIS2_PLACEMENT_3D( '', #378, #379, #380 );
#344 = COLOUR_RGB( '', 0.200000002980232, 0.200000002980232, 0.200000002980232 );
#345 = COLOUR_RGB( '', 0.200000002980232, 0.200000002980232, 0.200000002980232 );
#346 = CARTESIAN_POINT( '', ( -10.4946141585751, -3.85185988877447E-031, 48.9946429340133 ) );
#347 = AXIS2_PLACEMENT_3D( '', #381, #382, #383 );
#348 = CARTESIAN_POINT( '', ( 10.3500000000000, -3.85185988877447E-031, 22.0000000000000 ) );
#349 = AXIS2_PLACEMENT_3D( '', #384, #385, #386 );
#350 = COLOUR_RGB( '', 0.200000002980232, 0.200000002980232, 0.200000002980232 );
#351 = CARTESIAN_POINT( '', ( 8.67323789920220, -3.85185988877447E-031, 0.920705018541940 ) );
#352 = AXIS2_PLACEMENT_3D( '', #387, #388, #389 );
#353 = COLOUR_RGB( '', 0.200000002980232, 0.200000002980232, 0.200000002980232 );
#354 = COLOUR_RGB( '', 0.752941191196442, 0.752941191196442, 0.752941191196442 );
#355 = COLOUR_RGB( '', 0.666666686534882, 0.733333349227905, 0.866666674613953 );
#356 = COLOUR_RGB( '', 0.200000002980232, 0.200000002980232, 0.200000002980232 );
#357 = CARTESIAN_POINT( '', ( -2.35850604691338E-047, -3.85185988877447E-031, 0.111305592456002 ) );
#358 = DIRECTION( '', ( 0.000000000000000, 0.000000000000000, 1.00000000000000 ) );
#359 = DIRECTION( '', ( 1.00000000000000, 0.000000000000000, 0.000000000000000 ) );
#360 = CARTESIAN_POINT( '', ( -8.04911692853239E-016, -8.04911692853239E-016, -14.5000000000000 ) );
#361 = DIRECTION( '', ( -5.55111512312578E-017, -5.55111512312578E-017, -1.00000000000000 ) );
#362 = DIRECTION( '', ( 0.000000000000000, -1.00000000000000, 5.55111512312578E-017 ) );
#363 = CARTESIAN_POINT( '', ( -2.35850604691338E-047, -3.85185988877447E-031, 30.0000000000000 ) );
#364 = DIRECTION( '', ( 0.000000000000000, 0.000000000000000, 1.00000000000000 ) );
#365 = DIRECTION( '', ( 0.000000000000000, -1.00000000000000, 0.000000000000000 ) );
#366 = CARTESIAN_POINT( '', ( -2.35850604691338E-047, -3.85185988877447E-031, 15.0000000000000 ) );
#367 = DIRECTION( '', ( -5.55111512312578E-017, -5.55111512312578E-017, -1.00000000000000 ) );
#368 = DIRECTION( '', ( -1.00000000000000, 0.000000000000000, 5.55111512312578E-017 ) );
#369 = CARTESIAN_POINT( '', ( -2.35850604691338E-047, -3.85185988877447E-031, 1.25767452008318E-014 ) );
#370 = DIRECTION( '', ( 0.000000000000000, 0.000000000000000, 1.00000000000000 ) );
#371 = DIRECTION( '', ( 1.00000000000000, 0.000000000000000, 0.000000000000000 ) );
#372 = CARTESIAN_POINT( '', ( -2.35850604691338E-047, -3.85185988877447E-031, 6.93889390390723E-015 ) );
#373 = DIRECTION( '', ( 0.000000000000000, 0.000000000000000, 1.00000000000000 ) );
#374 = DIRECTION( '', ( 1.00000000000000, 0.000000000000000, 0.000000000000000 ) );
#375 = CARTESIAN_POINT( '', ( -2.35850604691338E-047, -3.85185988877447E-031, 50.0000000000000 ) );
#376 = DIRECTION( '', ( 0.000000000000000, 0.000000000000000, -1.00000000000000 ) );
#377 = DIRECTION( '', ( -1.00000000000000, 0.000000000000000, 0.000000000000000 ) );
#378 = CARTESIAN_POINT( '', ( -8.32667268468868E-016, -8.32667268468868E-016, -15.0000000000000 ) );
#379 = DIRECTION( '', ( -5.55111512312578E-017, -5.55111512312578E-017, -1.00000000000000 ) );
#380 = DIRECTION( '', ( 0.000000000000000, -1.00000000000000, 5.55111512312578E-017 ) );
#381 = CARTESIAN_POINT( '', ( -2.35850604691338E-047, -3.85185988877447E-031, 48.9946429340133 ) );
#382 = DIRECTION( '', ( 0.000000000000000, 0.000000000000000, -1.00000000000000 ) );
#383 = DIRECTION( '', ( -1.00000000000000, 0.000000000000000, 0.000000000000000 ) );
#384 = CARTESIAN_POINT( '', ( -2.35850604691338E-047, -3.85185988877447E-031, 22.0000000000000 ) );
#385 = DIRECTION( '', ( 0.000000000000000, 0.000000000000000, 1.00000000000000 ) );
#386 = DIRECTION( '', ( 1.00000000000000, 0.000000000000000, 0.000000000000000 ) );
#387 = CARTESIAN_POINT( '', ( -2.35850604691338E-047, -3.85185988877447E-031, 0.920705018541940 ) );
#388 = DIRECTION( '', ( 0.000000000000000, 0.000000000000000, 1.00000000000000 ) );
#389 = DIRECTION( '', ( 1.00000000000000, 0.000000000000000, 0.000000000000000 ) );
ENDSEC;
END-ISO-10303-21;
