ISO-10303-21;
HEADER;
FILE_DESCRIPTION( ( 'Unknown' ), '1' );
FILE_NAME( 'E:/98-Dis_3D_per_controllo/MCF/6139007_MCF21x50_M08x15/6139007_MCF21x50_M08x15.stp', 'Unknown', ( 'Unknown' ), ( 'Unknown' ), 'PSStep 11.0', 'Unknown', '  ' );
FILE_SCHEMA( ( 'AUTOMOTIVE_DESIGN { 1 0 10303 214 1 1 1 1 }' ) );
ENDSEC;
DATA;
#1 = MECHANICAL_DESIGN_GEOMETRIC_PRESENTATION_REPRESENTATION( ' ', ( #10, #11, #12, #13, #14, #15, #16, #17, #18, #19, #20, #21, #22, #23 ), #6 );
#2 = PRODUCT_DEFINITION_CONTEXT( '', #24, 'design' );
#3 = APPLICATION_PROTOCOL_DEFINITION( 'INTERNATIONAL STANDARD', 'automotive_design', 2001, #24 );
#4 = PRODUCT_CATEGORY_RELATIONSHIP( 'NONE', 'NONE', #25, #26 );
#5 = SHAPE_DEFINITION_REPRESENTATION( #27, #28 );
#6 =  ( GEOMETRIC_REPRESENTATION_CONTEXT( 3 )GLOBAL_UNCERTAINTY_ASSIGNED_CONTEXT( ( #31 ) )GLOBAL_UNIT_ASSIGNED_CONTEXT( ( #33, #34, #35 ) )REPRESENTATION_CONTEXT( 'NONE', 'WORKSPACE' ) );
#10 = STYLED_ITEM( '', ( #37 ), #38 );
#11 = STYLED_ITEM( '', ( #39 ), #40 );
#12 = STYLED_ITEM( '', ( #41 ), #42 );
#13 = STYLED_ITEM( '', ( #43 ), #44 );
#14 = STYLED_ITEM( '', ( #45 ), #46 );
#15 = STYLED_ITEM( '', ( #47 ), #48 );
#16 = STYLED_ITEM( '', ( #49 ), #50 );
#17 = STYLED_ITEM( '', ( #51 ), #52 );
#18 = STYLED_ITEM( '', ( #53 ), #54 );
#19 = STYLED_ITEM( '', ( #55 ), #56 );
#20 = STYLED_ITEM( '', ( #57 ), #58 );
#21 = STYLED_ITEM( '', ( #59 ), #60 );
#22 = STYLED_ITEM( '', ( #61 ), #62 );
#23 = STYLED_ITEM( '', ( #63 ), #64 );
#24 = APPLICATION_CONTEXT( 'core data for automotive mechanical design processes' );
#25 = PRODUCT_CATEGORY( 'part', 'NONE' );
#26 = PRODUCT_RELATED_PRODUCT_CATEGORY( 'detail', ' ', ( #65 ) );
#27 = PRODUCT_DEFINITION_SHAPE( 'NONE', 'NONE', #66 );
#28 = ADVANCED_BREP_SHAPE_REPRESENTATION( '6136013_MC21x50', ( #67, #68 ), #6 );
#31 = UNCERTAINTY_MEASURE_WITH_UNIT( LENGTH_MEASURE( 0.00100000000000000 ), #33, '', '' );
#33 =  ( CONVERSION_BASED_UNIT( 'MILLIMETRE', #71 )LENGTH_UNIT(  )NAMED_UNIT( #74 ) );
#34 =  ( NAMED_UNIT( #76 )PLANE_ANGLE_UNIT(  )SI_UNIT( $, .RADIAN. ) );
#35 =  ( NAMED_UNIT( #76 )SI_UNIT( $, .STERADIAN. )SOLID_ANGLE_UNIT(  ) );
#37 = PRESENTATION_STYLE_ASSIGNMENT( ( #82 ) );
#38 = ADVANCED_FACE( '', ( #83, #84 ), #85, .T. );
#39 = PRESENTATION_STYLE_ASSIGNMENT( ( #86 ) );
#40 = ADVANCED_FACE( '', ( #87, #88 ), #89, .T. );
#41 = PRESENTATION_STYLE_ASSIGNMENT( ( #90 ) );
#42 = ADVANCED_FACE( '', ( #91, #92 ), #93, .F. );
#43 = PRESENTATION_STYLE_ASSIGNMENT( ( #94 ) );
#44 = ADVANCED_FACE( '', ( #95, #96 ), #97, .T. );
#45 = PRESENTATION_STYLE_ASSIGNMENT( ( #98 ) );
#46 = ADVANCED_FACE( '', ( #99, #100 ), #101, .T. );
#47 = PRESENTATION_STYLE_ASSIGNMENT( ( #102 ) );
#48 = ADVANCED_FACE( '', ( #103 ), #104, .F. );
#49 = PRESENTATION_STYLE_ASSIGNMENT( ( #105 ) );
#50 = ADVANCED_FACE( '', ( #106, #107 ), #108, .T. );
#51 = PRESENTATION_STYLE_ASSIGNMENT( ( #109 ) );
#52 = ADVANCED_FACE( '', ( #110, #111 ), #112, .T. );
#53 = PRESENTATION_STYLE_ASSIGNMENT( ( #113 ) );
#54 = ADVANCED_FACE( '', ( #114, #115 ), #116, .F. );
#55 = PRESENTATION_STYLE_ASSIGNMENT( ( #117 ) );
#56 = ADVANCED_FACE( '', ( #118 ), #119, .F. );
#57 = PRESENTATION_STYLE_ASSIGNMENT( ( #120 ) );
#58 = ADVANCED_FACE( '', ( #121 ), #122, .T. );
#59 = PRESENTATION_STYLE_ASSIGNMENT( ( #123 ) );
#60 = ADVANCED_FACE( '', ( #124, #125 ), #126, .T. );
#61 = PRESENTATION_STYLE_ASSIGNMENT( ( #127 ) );
#62 = ADVANCED_FACE( '', ( #128, #129 ), #130, .T. );
#63 = PRESENTATION_STYLE_ASSIGNMENT( ( #131 ) );
#64 = ADVANCED_FACE( '', ( #132, #133 ), #134, .F. );
#65 = PRODUCT( '6136013_MC21x50', '6136013_MC21x50', 'PART-6136013_MC21x50-DESC', ( #135 ) );
#66 = PRODUCT_DEFINITION( 'NONE', 'NONE', #136, #2 );
#67 = BREP_WITH_VOIDS( '6136013_MC21x50', #137, ( #138 ) );
#68 = AXIS2_PLACEMENT_3D( '', #139, #140, #141 );
#71 = LENGTH_MEASURE_WITH_UNIT( LENGTH_MEASURE( 1.00000000000000 ), #142 );
#74 = DIMENSIONAL_EXPONENTS( 1.00000000000000, 0.000000000000000, 0.000000000000000, 0.000000000000000, 0.000000000000000, 0.000000000000000, 0.000000000000000 );
#76 = DIMENSIONAL_EXPONENTS( 0.000000000000000, 0.000000000000000, 0.000000000000000, 0.000000000000000, 0.000000000000000, 0.000000000000000, 0.000000000000000 );
#82 = SURFACE_STYLE_USAGE( .BOTH., #143 );
#83 = FACE_OUTER_BOUND( '', #144, .T. );
#84 = FACE_OUTER_BOUND( '', #145, .T. );
#85 = TOROIDAL_SURFACE( '', #146, 7.67638670372939, 1.00000000000000 );
#86 = SURFACE_STYLE_USAGE( .BOTH., #147 );
#87 = FACE_OUTER_BOUND( '', #148, .T. );
#88 = FACE_BOUND( '', #149, .T. );
#89 = CONICAL_SURFACE( '', #150, 10.3500000000000, 0.00535709160984768 );
#90 = SURFACE_STYLE_USAGE( .BOTH., #151 );
#91 = FACE_OUTER_BOUND( '', #152, .T. );
#92 = FACE_BOUND( '', #153, .T. );
#93 = CONICAL_SURFACE( '', #154, 3.32350000000000, 1.02974425867665 );
#94 = SURFACE_STYLE_USAGE( .BOTH., #155 );
#95 = FACE_OUTER_BOUND( '', #156, .T. );
#96 = FACE_OUTER_BOUND( '', #157, .T. );
#97 = TOROIDAL_SURFACE( '', #158, 4.32350000000000, 1.00000000000000 );
#98 = SURFACE_STYLE_USAGE( .BOTH., #159 );
#99 = FACE_OUTER_BOUND( '', #160, .T. );
#100 = FACE_BOUND( '', #161, .T. );
#101 = CONICAL_SURFACE( '', #162, 8.67323789920220, 0.0793783145595736 );
#102 = SURFACE_STYLE_USAGE( .BOTH., #163 );
#103 = FACE_OUTER_BOUND( '', #164, .T. );
#104 = PLANE( '', #165 );
#105 = SURFACE_STYLE_USAGE( .BOTH., #166 );
#106 = FACE_OUTER_BOUND( '', #167, .T. );
#107 = FACE_OUTER_BOUND( '', #168, .T. );
#108 = TOROIDAL_SURFACE( '', #169, 9.49462850775602, 1.00000000000000 );
#109 = SURFACE_STYLE_USAGE( .BOTH., #170 );
#110 = FACE_OUTER_BOUND( '', #171, .T. );
#111 = FACE_OUTER_BOUND( '', #172, .T. );
#112 = CYLINDRICAL_SURFACE( '', #173, 4.00000000000000 );
#113 = SURFACE_STYLE_USAGE( .BOTH., #174 );
#114 = FACE_OUTER_BOUND( '', #175, .T. );
#115 = FACE_OUTER_BOUND( '', #176, .T. );
#116 = CYLINDRICAL_SURFACE( '', #177, 3.32350000000000 );
#117 = SURFACE_STYLE_USAGE( .BOTH., #178 );
#118 = FACE_OUTER_BOUND( '', #179, .T. );
#119 = PLANE( '', #180 );
#120 = SURFACE_STYLE_USAGE( .BOTH., #181 );
#121 = FACE_OUTER_BOUND( '', #182, .T. );
#122 = PLANE( '', #183 );
#123 = SURFACE_STYLE_USAGE( .BOTH., #184 );
#124 = FACE_BOUND( '', #185, .T. );
#125 = FACE_OUTER_BOUND( '', #186, .T. );
#126 = CONICAL_SURFACE( '', #187, 4.00000000000000, 0.785398163397448 );
#127 = SURFACE_STYLE_USAGE( .BOTH., #188 );
#128 = FACE_OUTER_BOUND( '', #189, .T. );
#129 = FACE_BOUND( '', #190, .T. );
#130 = CONICAL_SURFACE( '', #191, 3.00000000000000, 0.785398163397448 );
#131 = SURFACE_STYLE_USAGE( .BOTH., #192 );
#132 = FACE_BOUND( '', #193, .T. );
#133 = FACE_OUTER_BOUND( '', #194, .T. );
#134 = PLANE( '', #195 );
#135 = PRODUCT_CONTEXT( '', #24, 'mechanical' );
#136 = PRODUCT_DEFINITION_FORMATION_WITH_SPECIFIED_SOURCE( ' ', 'NONE', #65, .NOT_KNOWN. );
#137 = CLOSED_SHELL( '', ( #38, #50, #64, #44, #56, #40, #46, #62, #58, #52 ) );
#138 = ORIENTED_CLOSED_SHELL( '', *, #196, .T. );
#139 = CARTESIAN_POINT( '', ( 0.000000000000000, 0.000000000000000, 0.000000000000000 ) );
#140 = DIRECTION( '', ( 0.000000000000000, 0.000000000000000, 1.00000000000000 ) );
#141 = DIRECTION( '', ( 1.00000000000000, 0.000000000000000, 0.000000000000000 ) );
#142 =  ( LENGTH_UNIT(  )NAMED_UNIT( #74 )SI_UNIT( .MILLI., .METRE. ) );
#143 = SURFACE_SIDE_STYLE( '', ( #198 ) );
#144 = EDGE_LOOP( '', ( #199 ) );
#145 = EDGE_LOOP( '', ( #200 ) );
#146 = AXIS2_PLACEMENT_3D( '', #201, #202, #203 );
#147 = SURFACE_SIDE_STYLE( '', ( #204 ) );
#148 = EDGE_LOOP( '', ( #205 ) );
#149 = EDGE_LOOP( '', ( #206 ) );
#150 = AXIS2_PLACEMENT_3D( '', #207, #208, #209 );
#151 = SURFACE_SIDE_STYLE( '', ( #210 ) );
#152 = EDGE_LOOP( '', ( #211 ) );
#153 = VERTEX_LOOP( '', #212 );
#154 = AXIS2_PLACEMENT_3D( '', #213, #214, #215 );
#155 = SURFACE_SIDE_STYLE( '', ( #216 ) );
#156 = EDGE_LOOP( '', ( #217 ) );
#157 = EDGE_LOOP( '', ( #218 ) );
#158 = AXIS2_PLACEMENT_3D( '', #219, #220, #221 );
#159 = SURFACE_SIDE_STYLE( '', ( #222 ) );
#160 = EDGE_LOOP( '', ( #223 ) );
#161 = EDGE_LOOP( '', ( #224 ) );
#162 = AXIS2_PLACEMENT_3D( '', #225, #226, #227 );
#163 = SURFACE_SIDE_STYLE( '', ( #228 ) );
#164 = EDGE_LOOP( '', ( #229 ) );
#165 = AXIS2_PLACEMENT_3D( '', #230, #231, #232 );
#166 = SURFACE_SIDE_STYLE( '', ( #233 ) );
#167 = EDGE_LOOP( '', ( #234 ) );
#168 = EDGE_LOOP( '', ( #235 ) );
#169 = AXIS2_PLACEMENT_3D( '', #236, #237, #238 );
#170 = SURFACE_SIDE_STYLE( '', ( #239 ) );
#171 = EDGE_LOOP( '', ( #240 ) );
#172 = EDGE_LOOP( '', ( #241 ) );
#173 = AXIS2_PLACEMENT_3D( '', #242, #243, #244 );
#174 = SURFACE_SIDE_STYLE( '', ( #245 ) );
#175 = EDGE_LOOP( '', ( #246 ) );
#176 = EDGE_LOOP( '', ( #247 ) );
#177 = AXIS2_PLACEMENT_3D( '', #248, #249, #250 );
#178 = SURFACE_SIDE_STYLE( '', ( #251 ) );
#179 = EDGE_LOOP( '', ( #252 ) );
#180 = AXIS2_PLACEMENT_3D( '', #253, #254, #255 );
#181 = SURFACE_SIDE_STYLE( '', ( #256 ) );
#182 = EDGE_LOOP( '', ( #257 ) );
#183 = AXIS2_PLACEMENT_3D( '', #258, #259, #260 );
#184 = SURFACE_SIDE_STYLE( '', ( #261 ) );
#185 = EDGE_LOOP( '', ( #262 ) );
#186 = EDGE_LOOP( '', ( #263 ) );
#187 = AXIS2_PLACEMENT_3D( '', #264, #265, #266 );
#188 = SURFACE_SIDE_STYLE( '', ( #267 ) );
#189 = EDGE_LOOP( '', ( #268 ) );
#190 = EDGE_LOOP( '', ( #269 ) );
#191 = AXIS2_PLACEMENT_3D( '', #270, #271, #272 );
#192 = SURFACE_SIDE_STYLE( '', ( #273 ) );
#193 = EDGE_LOOP( '', ( #274 ) );
#194 = EDGE_LOOP( '', ( #275 ) );
#195 = AXIS2_PLACEMENT_3D( '', #276, #277, #278 );
#196 = CLOSED_SHELL( '', ( #42, #54, #60, #48 ) );
#198 = SURFACE_STYLE_FILL_AREA( #279 );
#199 = ORIENTED_EDGE( '', *, *, #280, .F. );
#200 = ORIENTED_EDGE( '', *, *, #281, .T. );
#201 = CARTESIAN_POINT( '', ( 0.000000000000000, 0.000000000000000, 1.00000000000000 ) );
#202 = DIRECTION( '', ( 0.000000000000000, 0.000000000000000, 1.00000000000000 ) );
#203 = DIRECTION( '', ( 1.00000000000000, 0.000000000000000, 0.000000000000000 ) );
#204 = SURFACE_STYLE_FILL_AREA( #282 );
#205 = ORIENTED_EDGE( '', *, *, #283, .T. );
#206 = ORIENTED_EDGE( '', *, *, #284, .T. );
#207 = CARTESIAN_POINT( '', ( -2.35850604691338E-047, -3.85185988877447E-031, 22.0000000000000 ) );
#208 = DIRECTION( '', ( -0.000000000000000, -0.000000000000000, 1.00000000000000 ) );
#209 = DIRECTION( '', ( 1.00000000000000, 0.000000000000000, 0.000000000000000 ) );
#210 = SURFACE_STYLE_FILL_AREA( #285 );
#211 = ORIENTED_EDGE( '', *, *, #286, .F. );
#212 = VERTEX_POINT( '', #287 );
#213 = CARTESIAN_POINT( '', ( 0.000000000000000, 0.000000000000000, 30.0000000000000 ) );
#214 = DIRECTION( '', ( 0.000000000000000, -0.000000000000000, -1.00000000000000 ) );
#215 = DIRECTION( '', ( 0.000000000000000, -1.00000000000000, 0.000000000000000 ) );
#216 = SURFACE_STYLE_FILL_AREA( #288 );
#217 = ORIENTED_EDGE( '', *, *, #289, .F. );
#218 = ORIENTED_EDGE( '', *, *, #290, .F. );
#219 = CARTESIAN_POINT( '', ( 0.000000000000000, 0.000000000000000, 1.00000000000001 ) );
#220 = DIRECTION( '', ( 0.000000000000000, 0.000000000000000, 1.00000000000000 ) );
#221 = DIRECTION( '', ( 1.00000000000000, 0.000000000000000, 0.000000000000000 ) );
#222 = SURFACE_STYLE_FILL_AREA( #291 );
#223 = ORIENTED_EDGE( '', *, *, #284, .F. );
#224 = ORIENTED_EDGE( '', *, *, #280, .T. );
#225 = CARTESIAN_POINT( '', ( -2.35850604691338E-047, -3.85185988877447E-031, 0.920705018541940 ) );
#226 = DIRECTION( '', ( -0.000000000000000, -0.000000000000000, 1.00000000000000 ) );
#227 = DIRECTION( '', ( 1.00000000000000, 0.000000000000000, 0.000000000000000 ) );
#228 = SURFACE_STYLE_FILL_AREA( #292 );
#229 = ORIENTED_EDGE( '', *, *, #293, .T. );
#230 = CARTESIAN_POINT( '', ( 0.000000000000000, 4.16333634234434E-015, 25.0000000000000 ) );
#231 = DIRECTION( '', ( 0.000000000000000, -1.66533453693774E-016, -1.00000000000000 ) );
#232 = DIRECTION( '', ( -0.892597709362042, -0.450853999917530, 7.50822737179185E-017 ) );
#233 = SURFACE_STYLE_FILL_AREA( #294 );
#234 = ORIENTED_EDGE( '', *, *, #283, .F. );
#235 = ORIENTED_EDGE( '', *, *, #295, .F. );
#236 = CARTESIAN_POINT( '', ( -2.35850604691338E-047, -3.85185988877447E-031, 49.0000000000000 ) );
#237 = DIRECTION( '', ( 0.000000000000000, 0.000000000000000, -1.00000000000000 ) );
#238 = DIRECTION( '', ( -1.00000000000000, 0.000000000000000, 0.000000000000000 ) );
#239 = SURFACE_STYLE_FILL_AREA( #296 );
#240 = ORIENTED_EDGE( '', *, *, #289, .T. );
#241 = ORIENTED_EDGE( '', *, *, #297, .T. );
#242 = CARTESIAN_POINT( '', ( 0.000000000000000, 4.16333634234434E-015, 25.0000000000000 ) );
#243 = DIRECTION( '', ( -2.46519032881566E-032, 1.66533453693774E-016, 1.00000000000000 ) );
#244 = DIRECTION( '', ( -0.892597709362042, -0.450853999917530, 7.50822737179185E-017 ) );
#245 = SURFACE_STYLE_FILL_AREA( #298 );
#246 = ORIENTED_EDGE( '', *, *, #299, .T. );
#247 = ORIENTED_EDGE( '', *, *, #286, .T. );
#248 = CARTESIAN_POINT( '', ( 0.000000000000000, 0.000000000000000, 1.25085407526662E-014 ) );
#249 = DIRECTION( '', ( -0.000000000000000, 0.000000000000000, -1.00000000000000 ) );
#250 = DIRECTION( '', ( 0.000000000000000, 1.00000000000000, 0.000000000000000 ) );
#251 = SURFACE_STYLE_FILL_AREA( #300 );
#252 = ORIENTED_EDGE( '', *, *, #295, .T. );
#253 = CARTESIAN_POINT( '', ( 6.42918335756748E-016, 10.5000000000000, 50.0000000000000 ) );
#254 = DIRECTION( '', ( 0.000000000000000, 0.000000000000000, -1.00000000000000 ) );
#255 = DIRECTION( '', ( -1.00000000000000, 0.000000000000000, 0.000000000000000 ) );
#256 = SURFACE_STYLE_FILL_AREA( #301 );
#257 = ORIENTED_EDGE( '', *, *, #302, .T. );
#258 = CARTESIAN_POINT( '', ( 0.000000000000000, -2.49800180540660E-015, -15.0000000000000 ) );
#259 = DIRECTION( '', ( 0.000000000000000, -1.66533453693774E-016, -1.00000000000000 ) );
#260 = DIRECTION( '', ( -0.892597709362042, -0.450853999917530, 7.50822737179185E-017 ) );
#261 = SURFACE_STYLE_FILL_AREA( #303 );
#262 = ORIENTED_EDGE( '', *, *, #293, .F. );
#263 = ORIENTED_EDGE( '', *, *, #299, .F. );
#264 = CARTESIAN_POINT( '', ( 0.000000000000000, 3.99680288865057E-015, 24.0000000000000 ) );
#265 = DIRECTION( '', ( 2.46519032881566E-032, -1.66533453693774E-016, -1.00000000000000 ) );
#266 = DIRECTION( '', ( -0.892597709362042, -0.450853999917530, 7.50822737179185E-017 ) );
#267 = SURFACE_STYLE_FILL_AREA( #304 );
#268 = ORIENTED_EDGE( '', *, *, #297, .F. );
#269 = ORIENTED_EDGE( '', *, *, #302, .F. );
#270 = CARTESIAN_POINT( '', ( 0.000000000000000, -2.49800180540660E-015, -15.0000000000000 ) );
#271 = DIRECTION( '', ( -2.19128029228059E-032, 1.66533453693773E-016, 1.00000000000000 ) );
#272 = DIRECTION( '', ( 0.892597709362042, 0.450853999917530, -7.50822737179185E-017 ) );
#273 = SURFACE_STYLE_FILL_AREA( #305 );
#274 = ORIENTED_EDGE( '', *, *, #290, .T. );
#275 = ORIENTED_EDGE( '', *, *, #281, .F. );
#276 = CARTESIAN_POINT( '', ( 4.70027596589231E-016, 7.67638670372939, 1.25081334425247E-014 ) );
#277 = DIRECTION( '', ( 0.000000000000000, 0.000000000000000, 1.00000000000000 ) );
#278 = DIRECTION( '', ( 1.00000000000000, 0.000000000000000, 0.000000000000000 ) );
#279 = FILL_AREA_STYLE( '', ( #306 ) );
#280 = EDGE_CURVE( '', #307, #307, #308, .T. );
#281 = EDGE_CURVE( '', #309, #309, #310, .T. );
#282 = FILL_AREA_STYLE( '', ( #311 ) );
#283 = EDGE_CURVE( '', #312, #312, #313, .T. );
#284 = EDGE_CURVE( '', #314, #314, #315, .T. );
#285 = FILL_AREA_STYLE( '', ( #316 ) );
#286 = EDGE_CURVE( '', #317, #317, #318, .T. );
#287 = CARTESIAN_POINT( '', ( 0.000000000000000, 0.000000000000000, 31.9969602673381 ) );
#288 = FILL_AREA_STYLE( '', ( #319 ) );
#289 = EDGE_CURVE( '', #320, #320, #321, .F. );
#290 = EDGE_CURVE( '', #322, #322, #323, .T. );
#291 = FILL_AREA_STYLE( '', ( #324 ) );
#292 = FILL_AREA_STYLE( '', ( #325 ) );
#293 = EDGE_CURVE( '', #326, #326, #327, .F. );
#294 = FILL_AREA_STYLE( '', ( #328 ) );
#295 = EDGE_CURVE( '', #329, #329, #330, .F. );
#296 = FILL_AREA_STYLE( '', ( #331 ) );
#297 = EDGE_CURVE( '', #332, #332, #333, .F. );
#298 = FILL_AREA_STYLE( '', ( #334 ) );
#299 = EDGE_CURVE( '', #335, #335, #336, .T. );
#300 = FILL_AREA_STYLE( '', ( #337 ) );
#301 = FILL_AREA_STYLE( '', ( #338 ) );
#302 = EDGE_CURVE( '', #339, #339, #340, .T. );
#303 = FILL_AREA_STYLE( '', ( #341 ) );
#304 = FILL_AREA_STYLE( '', ( #342 ) );
#305 = FILL_AREA_STYLE( '', ( #343 ) );
#306 = FILL_AREA_STYLE_COLOUR( '', #344 );
#307 = VERTEX_POINT( '', #345 );
#308 = CIRCLE( '', #346, 8.67323789920220 );
#309 = VERTEX_POINT( '', #347 );
#310 = CIRCLE( '', #348, 7.67638670372939 );
#311 = FILL_AREA_STYLE_COLOUR( '', #349 );
#312 = VERTEX_POINT( '', #350 );
#313 = CIRCLE( '', #351, 10.4946141585751 );
#314 = VERTEX_POINT( '', #352 );
#315 = CIRCLE( '', #353, 10.3500000000000 );
#316 = FILL_AREA_STYLE_COLOUR( '', #354 );
#317 = VERTEX_POINT( '', #355 );
#318 = CIRCLE( '', #356, 3.32350000000000 );
#319 = FILL_AREA_STYLE_COLOUR( '', #357 );
#320 = VERTEX_POINT( '', #358 );
#321 = CIRCLE( '', #359, 4.00000000000000 );
#322 = VERTEX_POINT( '', #360 );
#323 = CIRCLE( '', #361, 4.32350000000000 );
#324 = FILL_AREA_STYLE_COLOUR( '', #362 );
#325 = FILL_AREA_STYLE_COLOUR( '', #363 );
#326 = VERTEX_POINT( '', #364 );
#327 = CIRCLE( '', #365, 3.00000000000000 );
#328 = FILL_AREA_STYLE_COLOUR( '', #366 );
#329 = VERTEX_POINT( '', #367 );
#330 = CIRCLE( '', #368, 9.49462850775602 );
#331 = FILL_AREA_STYLE_COLOUR( '', #369 );
#332 = VERTEX_POINT( '', #370 );
#333 = CIRCLE( '', #371, 4.00000000000000 );
#334 = FILL_AREA_STYLE_COLOUR( '', #372 );
#335 = VERTEX_POINT( '', #373 );
#336 = CIRCLE( '', #374, 3.32350000000000 );
#337 = FILL_AREA_STYLE_COLOUR( '', #375 );
#338 = FILL_AREA_STYLE_COLOUR( '', #376 );
#339 = VERTEX_POINT( '', #377 );
#340 = CIRCLE( '', #378, 3.00000000000000 );
#341 = FILL_AREA_STYLE_COLOUR( '', #379 );
#342 = FILL_AREA_STYLE_COLOUR( '', #380 );
#343 = FILL_AREA_STYLE_COLOUR( '', #381 );
#344 = COLOUR_RGB( '', 0.200000002980232, 0.200000002980232, 0.200000002980232 );
#345 = CARTESIAN_POINT( '', ( 8.67323789920220, -3.85185988877447E-031, 0.920705018541940 ) );
#346 = AXIS2_PLACEMENT_3D( '', #382, #383, #384 );
#347 = CARTESIAN_POINT( '', ( 7.67638670372939, -3.85185988877447E-031, 6.93889390390723E-015 ) );
#348 = AXIS2_PLACEMENT_3D( '', #385, #386, #387 );
#349 = COLOUR_RGB( '', 0.200000002980232, 0.200000002980232, 0.200000002980232 );
#350 = CARTESIAN_POINT( '', ( -10.4946141585751, -3.85185988877447E-031, 48.9946429340133 ) );
#351 = AXIS2_PLACEMENT_3D( '', #388, #389, #390 );
#352 = CARTESIAN_POINT( '', ( 10.3500000000000, -3.85185988877447E-031, 22.0000000000000 ) );
#353 = AXIS2_PLACEMENT_3D( '', #391, #392, #393 );
#354 = COLOUR_RGB( '', 0.200000002980232, 0.200000002980232, 0.200000002980232 );
#355 = CARTESIAN_POINT( '', ( 0.000000000000000, -3.32350000000000, 30.0000000000000 ) );
#356 = AXIS2_PLACEMENT_3D( '', #394, #395, #396 );
#357 = COLOUR_RGB( '', 0.200000002980232, 0.200000002980232, 0.200000002980232 );
#358 = CARTESIAN_POINT( '', ( 4.00000000000000, 0.000000000000000, 0.0537718298423069 ) );
#359 = AXIS2_PLACEMENT_3D( '', #397, #398, #399 );
#360 = CARTESIAN_POINT( '', ( 4.32350000000000, 0.000000000000000, 1.25767452008318E-014 ) );
#361 = AXIS2_PLACEMENT_3D( '', #400, #401, #402 );
#362 = COLOUR_RGB( '', 0.200000002980232, 0.200000002980232, 0.200000002980232 );
#363 = COLOUR_RGB( '', 0.666666686534882, 0.733333349227905, 0.866666674613953 );
#364 = CARTESIAN_POINT( '', ( -2.67779312808613, -1.35256199975259, 25.0000000000000 ) );
#365 = AXIS2_PLACEMENT_3D( '', #403, #404, #405 );
#366 = COLOUR_RGB( '', 0.200000002980232, 0.200000002980232, 0.200000002980232 );
#367 = CARTESIAN_POINT( '', ( -9.49462850775602, -3.85185988877447E-031, 50.0000000000000 ) );
#368 = AXIS2_PLACEMENT_3D( '', #406, #407, #408 );
#369 = COLOUR_RGB( '', 0.752941191196442, 0.752941191196442, 0.752941191196442 );
#370 = CARTESIAN_POINT( '', ( -3.57039083744817, -1.80341599967012, -14.0000000000000 ) );
#371 = AXIS2_PLACEMENT_3D( '', #409, #410, #411 );
#372 = COLOUR_RGB( '', 0.752941191196442, 0.752941191196442, 0.752941191196442 );
#373 = CARTESIAN_POINT( '', ( 0.000000000000000, 3.32350000000000, 24.6765000000000 ) );
#374 = AXIS2_PLACEMENT_3D( '', #412, #413, #414 );
#375 = COLOUR_RGB( '', 0.200000002980232, 0.200000002980232, 0.200000002980232 );
#376 = COLOUR_RGB( '', 0.666666686534882, 0.733333349227905, 0.866666674613953 );
#377 = CARTESIAN_POINT( '', ( -2.67779312808613, -1.35256199975259, -15.0000000000000 ) );
#378 = AXIS2_PLACEMENT_3D( '', #415, #416, #417 );
#379 = COLOUR_RGB( '', 0.666666686534882, 0.733333349227905, 0.866666674613953 );
#380 = COLOUR_RGB( '', 0.666666686534882, 0.733333349227905, 0.866666674613953 );
#381 = COLOUR_RGB( '', 0.200000002980232, 0.200000002980232, 0.200000002980232 );
#382 = CARTESIAN_POINT( '', ( -2.35850604691338E-047, -3.85185988877447E-031, 0.920705018541940 ) );
#383 = DIRECTION( '', ( 0.000000000000000, 0.000000000000000, 1.00000000000000 ) );
#384 = DIRECTION( '', ( 1.00000000000000, 0.000000000000000, 0.000000000000000 ) );
#385 = CARTESIAN_POINT( '', ( -2.35850604691338E-047, -3.85185988877447E-031, 6.93889390390723E-015 ) );
#386 = DIRECTION( '', ( 0.000000000000000, 0.000000000000000, 1.00000000000000 ) );
#387 = DIRECTION( '', ( 1.00000000000000, 0.000000000000000, 0.000000000000000 ) );
#388 = CARTESIAN_POINT( '', ( -2.35850604691338E-047, -3.85185988877447E-031, 48.9946429340133 ) );
#389 = DIRECTION( '', ( 0.000000000000000, 0.000000000000000, -1.00000000000000 ) );
#390 = DIRECTION( '', ( -1.00000000000000, 0.000000000000000, 0.000000000000000 ) );
#391 = CARTESIAN_POINT( '', ( -2.35850604691338E-047, -3.85185988877447E-031, 22.0000000000000 ) );
#392 = DIRECTION( '', ( 0.000000000000000, 0.000000000000000, 1.00000000000000 ) );
#393 = DIRECTION( '', ( 1.00000000000000, 0.000000000000000, 0.000000000000000 ) );
#394 = CARTESIAN_POINT( '', ( 0.000000000000000, 0.000000000000000, 30.0000000000000 ) );
#395 = DIRECTION( '', ( 0.000000000000000, 0.000000000000000, 1.00000000000000 ) );
#396 = DIRECTION( '', ( 0.000000000000000, -1.00000000000000, 0.000000000000000 ) );
#397 = CARTESIAN_POINT( '', ( 0.000000000000000, 0.000000000000000, 0.0537718298423069 ) );
#398 = DIRECTION( '', ( 0.000000000000000, 0.000000000000000, 1.00000000000000 ) );
#399 = DIRECTION( '', ( 1.00000000000000, 0.000000000000000, 0.000000000000000 ) );
#400 = CARTESIAN_POINT( '', ( 0.000000000000000, 0.000000000000000, 1.25767452008318E-014 ) );
#401 = DIRECTION( '', ( 0.000000000000000, 0.000000000000000, 1.00000000000000 ) );
#402 = DIRECTION( '', ( 1.00000000000000, 0.000000000000000, 0.000000000000000 ) );
#403 = CARTESIAN_POINT( '', ( 0.000000000000000, 4.16333634234434E-015, 25.0000000000000 ) );
#404 = DIRECTION( '', ( 2.19128029228059E-032, -1.66533453693773E-016, -1.00000000000000 ) );
#405 = DIRECTION( '', ( -0.892597709362042, -0.450853999917530, 7.50822737179185E-017 ) );
#406 = CARTESIAN_POINT( '', ( -2.35850604691338E-047, -3.85185988877447E-031, 50.0000000000000 ) );
#407 = DIRECTION( '', ( 0.000000000000000, 0.000000000000000, -1.00000000000000 ) );
#408 = DIRECTION( '', ( -1.00000000000000, 0.000000000000000, 0.000000000000000 ) );
#409 = CARTESIAN_POINT( '', ( 0.000000000000000, -2.33146835171283E-015, -14.0000000000000 ) );
#410 = DIRECTION( '', ( 2.46519032881566E-032, -1.66533453693774E-016, -1.00000000000000 ) );
#411 = DIRECTION( '', ( -0.892597709362042, -0.450853999917530, 7.50822737179185E-017 ) );
#412 = CARTESIAN_POINT( '', ( 0.000000000000000, 4.10946277007440E-015, 24.6765000000000 ) );
#413 = DIRECTION( '', ( 0.000000000000000, -1.66533453693773E-016, -1.00000000000000 ) );
#414 = DIRECTION( '', ( 0.000000000000000, 1.00000000000000, -1.66533453693773E-016 ) );
#415 = CARTESIAN_POINT( '', ( 0.000000000000000, -2.49800180540660E-015, -15.0000000000000 ) );
#416 = DIRECTION( '', ( 2.19128029228059E-032, -1.66533453693773E-016, -1.00000000000000 ) );
#417 = DIRECTION( '', ( -0.892597709362042, -0.450853999917530, 7.50822737179185E-017 ) );
ENDSEC;
END-ISO-10303-21;
