ISO-10303-21;
HEADER;
FILE_DESCRIPTION( ( 'Unknown' ), '1' );
FILE_NAME( 'E:/98-Dis_3D_per_controllo/MCF/6139010_MCF23x55_M08x15/6139010_MCF23x55_M08x15.stp', 'Unknown', ( 'Unknown' ), ( 'Unknown' ), 'PSStep 11.0', 'Unknown', '  ' );
FILE_SCHEMA( ( 'AUTOMOTIVE_DESIGN { 1 0 10303 214 1 1 1 1 }' ) );
ENDSEC;
DATA;
#1 = MECHANICAL_DESIGN_GEOMETRIC_PRESENTATION_REPRESENTATION( ' ', ( #10, #11, #12, #13, #14, #15, #16, #17, #18, #19, #20, #21, #22, #23 ), #6 );
#2 = PRODUCT_DEFINITION_CONTEXT( '', #24, 'design' );
#3 = APPLICATION_PROTOCOL_DEFINITION( 'INTERNATIONAL STANDARD', 'automotive_design', 2001, #24 );
#4 = PRODUCT_CATEGORY_RELATIONSHIP( 'NONE', 'NONE', #25, #26 );
#5 = SHAPE_DEFINITION_REPRESENTATION( #27, #28 );
#6 =  ( GEOMETRIC_REPRESENTATION_CONTEXT( 3 )GLOBAL_UNCERTAINTY_ASSIGNED_CONTEXT( ( #31 ) )GLOBAL_UNIT_ASSIGNED_CONTEXT( ( #33, #34, #35 ) )REPRESENTATION_CONTEXT( 'NONE', 'WORKSPACE' ) );
#10 = STYLED_ITEM( '', ( #37 ), #38 );
#11 = STYLED_ITEM( '', ( #39 ), #40 );
#12 = STYLED_ITEM( '', ( #41 ), #42 );
#13 = STYLED_ITEM( '', ( #43 ), #44 );
#14 = STYLED_ITEM( '', ( #45 ), #46 );
#15 = STYLED_ITEM( '', ( #47 ), #48 );
#16 = STYLED_ITEM( '', ( #49 ), #50 );
#17 = STYLED_ITEM( '', ( #51 ), #52 );
#18 = STYLED_ITEM( '', ( #53 ), #54 );
#19 = STYLED_ITEM( '', ( #55 ), #56 );
#20 = STYLED_ITEM( '', ( #57 ), #58 );
#21 = STYLED_ITEM( '', ( #59 ), #60 );
#22 = STYLED_ITEM( '', ( #61 ), #62 );
#23 = STYLED_ITEM( '', ( #63 ), #64 );
#24 = APPLICATION_CONTEXT( 'core data for automotive mechanical design processes' );
#25 = PRODUCT_CATEGORY( 'part', 'NONE' );
#26 = PRODUCT_RELATED_PRODUCT_CATEGORY( 'detail', ' ', ( #65 ) );
#27 = PRODUCT_DEFINITION_SHAPE( 'NONE', 'NONE', #66 );
#28 = ADVANCED_BREP_SHAPE_REPRESENTATION( '6136015_MC23x55', ( #67, #68 ), #6 );
#31 = UNCERTAINTY_MEASURE_WITH_UNIT( LENGTH_MEASURE( 0.00100000000000000 ), #33, '', '' );
#33 =  ( CONVERSION_BASED_UNIT( 'MILLIMETRE', #71 )LENGTH_UNIT(  )NAMED_UNIT( #74 ) );
#34 =  ( NAMED_UNIT( #76 )PLANE_ANGLE_UNIT(  )SI_UNIT( $, .RADIAN. ) );
#35 =  ( NAMED_UNIT( #76 )SI_UNIT( $, .STERADIAN. )SOLID_ANGLE_UNIT(  ) );
#37 = PRESENTATION_STYLE_ASSIGNMENT( ( #82 ) );
#38 = ADVANCED_FACE( '', ( #83, #84 ), #85, .F. );
#39 = PRESENTATION_STYLE_ASSIGNMENT( ( #86 ) );
#40 = ADVANCED_FACE( '', ( #87, #88 ), #89, .T. );
#41 = PRESENTATION_STYLE_ASSIGNMENT( ( #90 ) );
#42 = ADVANCED_FACE( '', ( #91, #92 ), #93, .F. );
#43 = PRESENTATION_STYLE_ASSIGNMENT( ( #94 ) );
#44 = ADVANCED_FACE( '', ( #95, #96 ), #97, .T. );
#45 = PRESENTATION_STYLE_ASSIGNMENT( ( #98 ) );
#46 = ADVANCED_FACE( '', ( #99 ), #100, .F. );
#47 = PRESENTATION_STYLE_ASSIGNMENT( ( #101 ) );
#48 = ADVANCED_FACE( '', ( #102, #103 ), #104, .T. );
#49 = PRESENTATION_STYLE_ASSIGNMENT( ( #105 ) );
#50 = ADVANCED_FACE( '', ( #106 ), #107, .F. );
#51 = PRESENTATION_STYLE_ASSIGNMENT( ( #108 ) );
#52 = ADVANCED_FACE( '', ( #109, #110 ), #111, .T. );
#53 = PRESENTATION_STYLE_ASSIGNMENT( ( #112 ) );
#54 = ADVANCED_FACE( '', ( #113, #114 ), #115, .T. );
#55 = PRESENTATION_STYLE_ASSIGNMENT( ( #116 ) );
#56 = ADVANCED_FACE( '', ( #117, #118 ), #119, .F. );
#57 = PRESENTATION_STYLE_ASSIGNMENT( ( #120 ) );
#58 = ADVANCED_FACE( '', ( #121, #122 ), #123, .T. );
#59 = PRESENTATION_STYLE_ASSIGNMENT( ( #124 ) );
#60 = ADVANCED_FACE( '', ( #125 ), #126, .T. );
#61 = PRESENTATION_STYLE_ASSIGNMENT( ( #127 ) );
#62 = ADVANCED_FACE( '', ( #128, #129 ), #130, .T. );
#63 = PRESENTATION_STYLE_ASSIGNMENT( ( #131 ) );
#64 = ADVANCED_FACE( '', ( #132, #133 ), #134, .T. );
#65 = PRODUCT( '6136015_MC23x55', '6136015_MC23x55', 'PART-6136015_MC23x55-DESC', ( #135 ) );
#66 = PRODUCT_DEFINITION( 'NONE', 'NONE', #136, #2 );
#67 = BREP_WITH_VOIDS( '6136015_MC23x55', #137, ( #138 ) );
#68 = AXIS2_PLACEMENT_3D( '', #139, #140, #141 );
#71 = LENGTH_MEASURE_WITH_UNIT( LENGTH_MEASURE( 1.00000000000000 ), #142 );
#74 = DIMENSIONAL_EXPONENTS( 1.00000000000000, 0.000000000000000, 0.000000000000000, 0.000000000000000, 0.000000000000000, 0.000000000000000, 0.000000000000000 );
#76 = DIMENSIONAL_EXPONENTS( 0.000000000000000, 0.000000000000000, 0.000000000000000, 0.000000000000000, 0.000000000000000, 0.000000000000000, 0.000000000000000 );
#82 = SURFACE_STYLE_USAGE( .BOTH., #143 );
#83 = FACE_BOUND( '', #144, .T. );
#84 = FACE_OUTER_BOUND( '', #145, .T. );
#85 = PLANE( '', #146 );
#86 = SURFACE_STYLE_USAGE( .BOTH., #147 );
#87 = FACE_BOUND( '', #148, .T. );
#88 = FACE_OUTER_BOUND( '', #149, .T. );
#89 = CONICAL_SURFACE( '', #150, 9.00000000000000, 0.0957067080868036 );
#90 = SURFACE_STYLE_USAGE( .BOTH., #151 );
#91 = FACE_OUTER_BOUND( '', #152, .T. );
#92 = FACE_BOUND( '', #153, .T. );
#93 = CONICAL_SURFACE( '', #154, 3.32350000000000, 1.02974425867665 );
#94 = SURFACE_STYLE_USAGE( .BOTH., #155 );
#95 = FACE_OUTER_BOUND( '', #156, .T. );
#96 = FACE_OUTER_BOUND( '', #157, .T. );
#97 = TOROIDAL_SURFACE( '', #158, 9.99499166668981, 1.50000000000000 );
#98 = SURFACE_STYLE_USAGE( .BOTH., #159 );
#99 = FACE_OUTER_BOUND( '', #160, .T. );
#100 = PLANE( '', #161 );
#101 = SURFACE_STYLE_USAGE( .BOTH., #162 );
#102 = FACE_OUTER_BOUND( '', #163, .T. );
#103 = FACE_OUTER_BOUND( '', #164, .T. );
#104 = TOROIDAL_SURFACE( '', #165, 8.54570128409481, 0.500000000000000 );
#105 = SURFACE_STYLE_USAGE( .BOTH., #166 );
#106 = FACE_OUTER_BOUND( '', #167, .T. );
#107 = PLANE( '', #168 );
#108 = SURFACE_STYLE_USAGE( .BOTH., #169 );
#109 = FACE_OUTER_BOUND( '', #170, .T. );
#110 = FACE_OUTER_BOUND( '', #171, .T. );
#111 = TOROIDAL_SURFACE( '', #172, 4.32350000000000, 1.00000000000000 );
#112 = SURFACE_STYLE_USAGE( .BOTH., #173 );
#113 = FACE_OUTER_BOUND( '', #174, .T. );
#114 = FACE_OUTER_BOUND( '', #175, .T. );
#115 = CYLINDRICAL_SURFACE( '', #176, 4.00000000000000 );
#116 = SURFACE_STYLE_USAGE( .BOTH., #177 );
#117 = FACE_OUTER_BOUND( '', #178, .T. );
#118 = FACE_OUTER_BOUND( '', #179, .T. );
#119 = CYLINDRICAL_SURFACE( '', #180, 3.32350000000000 );
#120 = SURFACE_STYLE_USAGE( .BOTH., #181 );
#121 = FACE_OUTER_BOUND( '', #182, .T. );
#122 = FACE_BOUND( '', #183, .T. );
#123 = CONICAL_SURFACE( '', #184, 11.4000000000000, 0.00333332098773672 );
#124 = SURFACE_STYLE_USAGE( .BOTH., #185 );
#125 = FACE_OUTER_BOUND( '', #186, .T. );
#126 = PLANE( '', #187 );
#127 = SURFACE_STYLE_USAGE( .BOTH., #188 );
#128 = FACE_BOUND( '', #189, .T. );
#129 = FACE_OUTER_BOUND( '', #190, .T. );
#130 = CONICAL_SURFACE( '', #191, 4.00000000000000, 0.785398163397448 );
#131 = SURFACE_STYLE_USAGE( .BOTH., #192 );
#132 = FACE_OUTER_BOUND( '', #193, .T. );
#133 = FACE_BOUND( '', #194, .T. );
#134 = CONICAL_SURFACE( '', #195, 3.00000000000000, 0.785398163397448 );
#135 = PRODUCT_CONTEXT( '', #24, 'mechanical' );
#136 = PRODUCT_DEFINITION_FORMATION_WITH_SPECIFIED_SOURCE( ' ', 'NONE', #65, .NOT_KNOWN. );
#137 = CLOSED_SHELL( '', ( #38, #52, #46, #48, #58, #40, #44, #64, #60, #54 ) );
#138 = ORIENTED_CLOSED_SHELL( '', *, #196, .T. );
#139 = CARTESIAN_POINT( '', ( 0.000000000000000, 0.000000000000000, 0.000000000000000 ) );
#140 = DIRECTION( '', ( 0.000000000000000, 0.000000000000000, 1.00000000000000 ) );
#141 = DIRECTION( '', ( 1.00000000000000, 0.000000000000000, 0.000000000000000 ) );
#142 =  ( LENGTH_UNIT(  )NAMED_UNIT( #74 )SI_UNIT( .MILLI., .METRE. ) );
#143 = SURFACE_SIDE_STYLE( '', ( #198 ) );
#144 = EDGE_LOOP( '', ( #199 ) );
#145 = EDGE_LOOP( '', ( #200 ) );
#146 = AXIS2_PLACEMENT_3D( '', #201, #202, #203 );
#147 = SURFACE_SIDE_STYLE( '', ( #204 ) );
#148 = EDGE_LOOP( '', ( #205 ) );
#149 = EDGE_LOOP( '', ( #206 ) );
#150 = AXIS2_PLACEMENT_3D( '', #207, #208, #209 );
#151 = SURFACE_SIDE_STYLE( '', ( #210 ) );
#152 = EDGE_LOOP( '', ( #211 ) );
#153 = VERTEX_LOOP( '', #212 );
#154 = AXIS2_PLACEMENT_3D( '', #213, #214, #215 );
#155 = SURFACE_SIDE_STYLE( '', ( #216 ) );
#156 = EDGE_LOOP( '', ( #217 ) );
#157 = EDGE_LOOP( '', ( #218 ) );
#158 = AXIS2_PLACEMENT_3D( '', #219, #220, #221 );
#159 = SURFACE_SIDE_STYLE( '', ( #222 ) );
#160 = EDGE_LOOP( '', ( #223 ) );
#161 = AXIS2_PLACEMENT_3D( '', #224, #225, #226 );
#162 = SURFACE_SIDE_STYLE( '', ( #227 ) );
#163 = EDGE_LOOP( '', ( #228 ) );
#164 = EDGE_LOOP( '', ( #229 ) );
#165 = AXIS2_PLACEMENT_3D( '', #230, #231, #232 );
#166 = SURFACE_SIDE_STYLE( '', ( #233 ) );
#167 = EDGE_LOOP( '', ( #234 ) );
#168 = AXIS2_PLACEMENT_3D( '', #235, #236, #237 );
#169 = SURFACE_SIDE_STYLE( '', ( #238 ) );
#170 = EDGE_LOOP( '', ( #239 ) );
#171 = EDGE_LOOP( '', ( #240 ) );
#172 = AXIS2_PLACEMENT_3D( '', #241, #242, #243 );
#173 = SURFACE_SIDE_STYLE( '', ( #244 ) );
#174 = EDGE_LOOP( '', ( #245 ) );
#175 = EDGE_LOOP( '', ( #246 ) );
#176 = AXIS2_PLACEMENT_3D( '', #247, #248, #249 );
#177 = SURFACE_SIDE_STYLE( '', ( #250 ) );
#178 = EDGE_LOOP( '', ( #251 ) );
#179 = EDGE_LOOP( '', ( #252 ) );
#180 = AXIS2_PLACEMENT_3D( '', #253, #254, #255 );
#181 = SURFACE_SIDE_STYLE( '', ( #256 ) );
#182 = EDGE_LOOP( '', ( #257 ) );
#183 = EDGE_LOOP( '', ( #258 ) );
#184 = AXIS2_PLACEMENT_3D( '', #259, #260, #261 );
#185 = SURFACE_SIDE_STYLE( '', ( #262 ) );
#186 = EDGE_LOOP( '', ( #263 ) );
#187 = AXIS2_PLACEMENT_3D( '', #264, #265, #266 );
#188 = SURFACE_SIDE_STYLE( '', ( #267 ) );
#189 = EDGE_LOOP( '', ( #268 ) );
#190 = EDGE_LOOP( '', ( #269 ) );
#191 = AXIS2_PLACEMENT_3D( '', #270, #271, #272 );
#192 = SURFACE_SIDE_STYLE( '', ( #273 ) );
#193 = EDGE_LOOP( '', ( #274 ) );
#194 = EDGE_LOOP( '', ( #275 ) );
#195 = AXIS2_PLACEMENT_3D( '', #276, #277, #278 );
#196 = CLOSED_SHELL( '', ( #42, #56, #62, #50 ) );
#198 = SURFACE_STYLE_FILL_AREA( #279 );
#199 = ORIENTED_EDGE( '', *, *, #280, .T. );
#200 = ORIENTED_EDGE( '', *, *, #281, .T. );
#201 = CARTESIAN_POINT( '', ( 5.51072859220070E-016, 9.00000000000000, 1.25024165075374E-014 ) );
#202 = DIRECTION( '', ( 0.000000000000000, 0.000000000000000, 1.00000000000000 ) );
#203 = DIRECTION( '', ( 1.00000000000000, 0.000000000000000, 0.000000000000000 ) );
#204 = SURFACE_STYLE_FILL_AREA( #282 );
#205 = ORIENTED_EDGE( '', *, *, #283, .T. );
#206 = ORIENTED_EDGE( '', *, *, #284, .F. );
#207 = CARTESIAN_POINT( '', ( -2.35850604691338E-047, -3.85185988877447E-031, 6.93889390390723E-015 ) );
#208 = DIRECTION( '', ( -0.000000000000000, -0.000000000000000, 1.00000000000000 ) );
#209 = DIRECTION( '', ( 1.00000000000000, 0.000000000000000, 0.000000000000000 ) );
#210 = SURFACE_STYLE_FILL_AREA( #285 );
#211 = ORIENTED_EDGE( '', *, *, #286, .F. );
#212 = VERTEX_POINT( '', #287 );
#213 = CARTESIAN_POINT( '', ( 0.000000000000000, 0.000000000000000, 35.0000000000000 ) );
#214 = DIRECTION( '', ( 0.000000000000000, -0.000000000000000, -1.00000000000000 ) );
#215 = DIRECTION( '', ( 0.000000000000000, -1.00000000000000, 0.000000000000000 ) );
#216 = SURFACE_STYLE_FILL_AREA( #288 );
#217 = ORIENTED_EDGE( '', *, *, #289, .F. );
#218 = ORIENTED_EDGE( '', *, *, #290, .F. );
#219 = CARTESIAN_POINT( '', ( -2.35850604691338E-047, -3.85185988877447E-031, 53.5000000000000 ) );
#220 = DIRECTION( '', ( 0.000000000000000, 0.000000000000000, -1.00000000000000 ) );
#221 = DIRECTION( '', ( -1.00000000000000, 0.000000000000000, 0.000000000000000 ) );
#222 = SURFACE_STYLE_FILL_AREA( #291 );
#223 = ORIENTED_EDGE( '', *, *, #290, .T. );
#224 = CARTESIAN_POINT( '', ( 7.04148653447867E-016, 11.5000000000000, 55.0000000000000 ) );
#225 = DIRECTION( '', ( 0.000000000000000, 0.000000000000000, -1.00000000000000 ) );
#226 = DIRECTION( '', ( -1.00000000000000, 0.000000000000000, 0.000000000000000 ) );
#227 = SURFACE_STYLE_FILL_AREA( #292 );
#228 = ORIENTED_EDGE( '', *, *, #281, .F. );
#229 = ORIENTED_EDGE( '', *, *, #283, .F. );
#230 = CARTESIAN_POINT( '', ( -2.35850604691338E-047, -3.85185988877447E-031, 0.500000000000013 ) );
#231 = DIRECTION( '', ( 0.000000000000000, 0.000000000000000, 1.00000000000000 ) );
#232 = DIRECTION( '', ( 1.00000000000000, 0.000000000000000, 0.000000000000000 ) );
#233 = SURFACE_STYLE_FILL_AREA( #293 );
#234 = ORIENTED_EDGE( '', *, *, #294, .T. );
#235 = CARTESIAN_POINT( '', ( 1.38777878078144E-015, 1.38777878078144E-015, 25.0000000000000 ) );
#236 = DIRECTION( '', ( -5.55111512312578E-017, -5.55111512312578E-017, -1.00000000000000 ) );
#237 = DIRECTION( '', ( 1.23259516440783E-032, -1.00000000000000, 5.55111512312578E-017 ) );
#238 = SURFACE_STYLE_FILL_AREA( #295 );
#239 = ORIENTED_EDGE( '', *, *, #296, .F. );
#240 = ORIENTED_EDGE( '', *, *, #280, .F. );
#241 = CARTESIAN_POINT( '', ( 0.000000000000000, 0.000000000000000, 1.00000000000001 ) );
#242 = DIRECTION( '', ( 0.000000000000000, 0.000000000000000, 1.00000000000000 ) );
#243 = DIRECTION( '', ( 1.00000000000000, 0.000000000000000, 0.000000000000000 ) );
#244 = SURFACE_STYLE_FILL_AREA( #297 );
#245 = ORIENTED_EDGE( '', *, *, #296, .T. );
#246 = ORIENTED_EDGE( '', *, *, #298, .T. );
#247 = CARTESIAN_POINT( '', ( 1.38777878078144E-015, 1.38777878078144E-015, 25.0000000000000 ) );
#248 = DIRECTION( '', ( 5.55111512312578E-017, 5.55111512312578E-017, 1.00000000000000 ) );
#249 = DIRECTION( '', ( 1.23259516440783E-032, -1.00000000000000, 5.55111512312578E-017 ) );
#250 = SURFACE_STYLE_FILL_AREA( #299 );
#251 = ORIENTED_EDGE( '', *, *, #300, .T. );
#252 = ORIENTED_EDGE( '', *, *, #286, .T. );
#253 = CARTESIAN_POINT( '', ( 0.000000000000000, 0.000000000000000, 1.25085407526662E-014 ) );
#254 = DIRECTION( '', ( -0.000000000000000, 0.000000000000000, -1.00000000000000 ) );
#255 = DIRECTION( '', ( 0.000000000000000, 1.00000000000000, 0.000000000000000 ) );
#256 = SURFACE_STYLE_FILL_AREA( #301 );
#257 = ORIENTED_EDGE( '', *, *, #289, .T. );
#258 = ORIENTED_EDGE( '', *, *, #284, .T. );
#259 = CARTESIAN_POINT( '', ( -2.35850604691338E-047, -3.85185988877447E-031, 25.0000000000000 ) );
#260 = DIRECTION( '', ( -0.000000000000000, -0.000000000000000, 1.00000000000000 ) );
#261 = DIRECTION( '', ( 1.00000000000000, 0.000000000000000, 0.000000000000000 ) );
#262 = SURFACE_STYLE_FILL_AREA( #302 );
#263 = ORIENTED_EDGE( '', *, *, #303, .T. );
#264 = CARTESIAN_POINT( '', ( -8.32667268468868E-016, -8.32667268468867E-016, -15.0000000000000 ) );
#265 = DIRECTION( '', ( -5.55111512312578E-017, -5.55111512312578E-017, -1.00000000000000 ) );
#266 = DIRECTION( '', ( 1.23259516440783E-032, -1.00000000000000, 5.55111512312578E-017 ) );
#267 = SURFACE_STYLE_FILL_AREA( #304 );
#268 = ORIENTED_EDGE( '', *, *, #294, .F. );
#269 = ORIENTED_EDGE( '', *, *, #300, .F. );
#270 = CARTESIAN_POINT( '', ( 1.33226762955019E-015, 1.33226762955019E-015, 24.0000000000000 ) );
#271 = DIRECTION( '', ( -5.55111512312578E-017, -5.55111512312578E-017, -1.00000000000000 ) );
#272 = DIRECTION( '', ( 1.23259516440783E-032, -1.00000000000000, 5.55111512312578E-017 ) );
#273 = SURFACE_STYLE_FILL_AREA( #305 );
#274 = ORIENTED_EDGE( '', *, *, #298, .F. );
#275 = ORIENTED_EDGE( '', *, *, #303, .F. );
#276 = CARTESIAN_POINT( '', ( -8.32667268468868E-016, -8.32667268468867E-016, -15.0000000000000 ) );
#277 = DIRECTION( '', ( 5.55111512312578E-017, 5.55111512312578E-017, 1.00000000000000 ) );
#278 = DIRECTION( '', ( -1.23259516440783E-032, 1.00000000000000, -5.55111512312578E-017 ) );
#279 = FILL_AREA_STYLE( '', ( #306 ) );
#280 = EDGE_CURVE( '', #307, #307, #308, .T. );
#281 = EDGE_CURVE( '', #309, #309, #310, .F. );
#282 = FILL_AREA_STYLE( '', ( #311 ) );
#283 = EDGE_CURVE( '', #312, #312, #313, .F. );
#284 = EDGE_CURVE( '', #314, #314, #315, .T. );
#285 = FILL_AREA_STYLE( '', ( #316 ) );
#286 = EDGE_CURVE( '', #317, #317, #318, .T. );
#287 = CARTESIAN_POINT( '', ( 0.000000000000000, 0.000000000000000, 36.9969602673381 ) );
#288 = FILL_AREA_STYLE( '', ( #319 ) );
#289 = EDGE_CURVE( '', #320, #320, #321, .T. );
#290 = EDGE_CURVE( '', #322, #322, #323, .F. );
#291 = FILL_AREA_STYLE( '', ( #324 ) );
#292 = FILL_AREA_STYLE( '', ( #325 ) );
#293 = FILL_AREA_STYLE( '', ( #326 ) );
#294 = EDGE_CURVE( '', #327, #327, #328, .F. );
#295 = FILL_AREA_STYLE( '', ( #329 ) );
#296 = EDGE_CURVE( '', #330, #330, #331, .F. );
#297 = FILL_AREA_STYLE( '', ( #332 ) );
#298 = EDGE_CURVE( '', #333, #333, #334, .F. );
#299 = FILL_AREA_STYLE( '', ( #335 ) );
#300 = EDGE_CURVE( '', #336, #336, #337, .T. );
#301 = FILL_AREA_STYLE( '', ( #338 ) );
#302 = FILL_AREA_STYLE( '', ( #339 ) );
#303 = EDGE_CURVE( '', #340, #340, #341, .T. );
#304 = FILL_AREA_STYLE( '', ( #342 ) );
#305 = FILL_AREA_STYLE( '', ( #343 ) );
#306 = FILL_AREA_STYLE_COLOUR( '', #344 );
#307 = VERTEX_POINT( '', #345 );
#308 = CIRCLE( '', #346, 4.32350000000000 );
#309 = VERTEX_POINT( '', #347 );
#310 = CIRCLE( '', #348, 8.54570128409481 );
#311 = FILL_AREA_STYLE_COLOUR( '', #349 );
#312 = VERTEX_POINT( '', #350 );
#313 = CIRCLE( '', #351, 9.04341308801507 );
#314 = VERTEX_POINT( '', #352 );
#315 = CIRCLE( '', #353, 11.4000000000000 );
#316 = FILL_AREA_STYLE_COLOUR( '', #354 );
#317 = VERTEX_POINT( '', #355 );
#318 = CIRCLE( '', #356, 3.32350000000000 );
#319 = FILL_AREA_STYLE_COLOUR( '', #357 );
#320 = VERTEX_POINT( '', #358 );
#321 = CIRCLE( '', #359, 11.4949833334259 );
#322 = VERTEX_POINT( '', #360 );
#323 = CIRCLE( '', #361, 9.99499166668981 );
#324 = FILL_AREA_STYLE_COLOUR( '', #362 );
#325 = FILL_AREA_STYLE_COLOUR( '', #363 );
#326 = FILL_AREA_STYLE_COLOUR( '', #364 );
#327 = VERTEX_POINT( '', #365 );
#328 = CIRCLE( '', #366, 3.00000000000000 );
#329 = FILL_AREA_STYLE_COLOUR( '', #367 );
#330 = VERTEX_POINT( '', #368 );
#331 = CIRCLE( '', #369, 4.00000000000000 );
#332 = FILL_AREA_STYLE_COLOUR( '', #370 );
#333 = VERTEX_POINT( '', #371 );
#334 = CIRCLE( '', #372, 4.00000000000000 );
#335 = FILL_AREA_STYLE_COLOUR( '', #373 );
#336 = VERTEX_POINT( '', #374 );
#337 = CIRCLE( '', #375, 3.32350000000000 );
#338 = FILL_AREA_STYLE_COLOUR( '', #376 );
#339 = FILL_AREA_STYLE_COLOUR( '', #377 );
#340 = VERTEX_POINT( '', #378 );
#341 = CIRCLE( '', #379, 3.00000000000000 );
#342 = FILL_AREA_STYLE_COLOUR( '', #380 );
#343 = FILL_AREA_STYLE_COLOUR( '', #381 );
#344 = COLOUR_RGB( '', 0.200000002980232, 0.200000002980232, 0.200000002980232 );
#345 = CARTESIAN_POINT( '', ( 4.32350000000000, 0.000000000000000, 1.25767452008318E-014 ) );
#346 = AXIS2_PLACEMENT_3D( '', #382, #383, #384 );
#347 = CARTESIAN_POINT( '', ( 8.54570128409481, -3.85185988877447E-031, 1.24683249835833E-014 ) );
#348 = AXIS2_PLACEMENT_3D( '', #385, #386, #387 );
#349 = COLOUR_RGB( '', 0.200000002980232, 0.200000002980232, 0.200000002980232 );
#350 = CARTESIAN_POINT( '', ( -9.04341308801507, -3.85185988877447E-031, 0.452219666823669 ) );
#351 = AXIS2_PLACEMENT_3D( '', #388, #389, #390 );
#352 = CARTESIAN_POINT( '', ( 11.4000000000000, -3.85185988877447E-031, 25.0000000000000 ) );
#353 = AXIS2_PLACEMENT_3D( '', #391, #392, #393 );
#354 = COLOUR_RGB( '', 0.200000002980232, 0.200000002980232, 0.200000002980232 );
#355 = CARTESIAN_POINT( '', ( 0.000000000000000, -3.32350000000000, 35.0000000000000 ) );
#356 = AXIS2_PLACEMENT_3D( '', #394, #395, #396 );
#357 = COLOUR_RGB( '', 0.200000002980232, 0.200000002980232, 0.200000002980232 );
#358 = CARTESIAN_POINT( '', ( -11.4949833334259, -3.85185988877447E-031, 53.4950000277776 ) );
#359 = AXIS2_PLACEMENT_3D( '', #397, #398, #399 );
#360 = CARTESIAN_POINT( '', ( -9.99499166668981, -3.85185988877447E-031, 55.0000000000000 ) );
#361 = AXIS2_PLACEMENT_3D( '', #400, #401, #402 );
#362 = COLOUR_RGB( '', 0.200000002980232, 0.200000002980232, 0.200000002980232 );
#363 = COLOUR_RGB( '', 0.200000002980232, 0.200000002980232, 0.200000002980232 );
#364 = COLOUR_RGB( '', 0.666666686534882, 0.733333349227905, 0.866666674613953 );
#365 = CARTESIAN_POINT( '', ( 1.38777878078144E-015, -3.00000000000000, 25.0000000000000 ) );
#366 = AXIS2_PLACEMENT_3D( '', #403, #404, #405 );
#367 = COLOUR_RGB( '', 0.200000002980232, 0.200000002980232, 0.200000002980232 );
#368 = CARTESIAN_POINT( '', ( 4.00000000000000, 0.000000000000000, 0.0537718298423069 ) );
#369 = AXIS2_PLACEMENT_3D( '', #406, #407, #408 );
#370 = COLOUR_RGB( '', 0.752941191196442, 0.752941191196442, 0.752941191196442 );
#371 = CARTESIAN_POINT( '', ( -7.77156117237610E-016, -4.00000000000000, -14.0000000000000 ) );
#372 = AXIS2_PLACEMENT_3D( '', #409, #410, #411 );
#373 = COLOUR_RGB( '', 0.752941191196442, 0.752941191196442, 0.752941191196442 );
#374 = CARTESIAN_POINT( '', ( -3.32350000000000, 1.36982092335813E-015, 24.6765000000000 ) );
#375 = AXIS2_PLACEMENT_3D( '', #412, #413, #414 );
#376 = COLOUR_RGB( '', 0.200000002980232, 0.200000002980232, 0.200000002980232 );
#377 = COLOUR_RGB( '', 0.666666686534882, 0.733333349227905, 0.866666674613953 );
#378 = CARTESIAN_POINT( '', ( -8.32667268468868E-016, -3.00000000000000, -15.0000000000000 ) );
#379 = AXIS2_PLACEMENT_3D( '', #415, #416, #417 );
#380 = COLOUR_RGB( '', 0.666666686534882, 0.733333349227905, 0.866666674613953 );
#381 = COLOUR_RGB( '', 0.666666686534882, 0.733333349227905, 0.866666674613953 );
#382 = CARTESIAN_POINT( '', ( 0.000000000000000, 0.000000000000000, 1.25767452008318E-014 ) );
#383 = DIRECTION( '', ( 0.000000000000000, 0.000000000000000, 1.00000000000000 ) );
#384 = DIRECTION( '', ( 1.00000000000000, 0.000000000000000, 0.000000000000000 ) );
#385 = CARTESIAN_POINT( '', ( -2.35850604691338E-047, -3.85185988877447E-031, 1.24683249835833E-014 ) );
#386 = DIRECTION( '', ( 0.000000000000000, 0.000000000000000, 1.00000000000000 ) );
#387 = DIRECTION( '', ( 1.00000000000000, 0.000000000000000, 0.000000000000000 ) );
#388 = CARTESIAN_POINT( '', ( -2.35850604691338E-047, -3.85185988877447E-031, 0.452219666823669 ) );
#389 = DIRECTION( '', ( 0.000000000000000, 0.000000000000000, -1.00000000000000 ) );
#390 = DIRECTION( '', ( -1.00000000000000, 0.000000000000000, 0.000000000000000 ) );
#391 = CARTESIAN_POINT( '', ( -2.35850604691338E-047, -3.85185988877447E-031, 25.0000000000000 ) );
#392 = DIRECTION( '', ( 0.000000000000000, 0.000000000000000, 1.00000000000000 ) );
#393 = DIRECTION( '', ( 1.00000000000000, 0.000000000000000, 0.000000000000000 ) );
#394 = CARTESIAN_POINT( '', ( 0.000000000000000, 0.000000000000000, 35.0000000000000 ) );
#395 = DIRECTION( '', ( 0.000000000000000, 0.000000000000000, 1.00000000000000 ) );
#396 = DIRECTION( '', ( 0.000000000000000, -1.00000000000000, 0.000000000000000 ) );
#397 = CARTESIAN_POINT( '', ( -2.35850604691338E-047, -3.85185988877447E-031, 53.4950000277776 ) );
#398 = DIRECTION( '', ( 0.000000000000000, 0.000000000000000, -1.00000000000000 ) );
#399 = DIRECTION( '', ( -1.00000000000000, 0.000000000000000, 0.000000000000000 ) );
#400 = CARTESIAN_POINT( '', ( -2.35850604691338E-047, -3.85185988877447E-031, 55.0000000000000 ) );
#401 = DIRECTION( '', ( 0.000000000000000, 0.000000000000000, -1.00000000000000 ) );
#402 = DIRECTION( '', ( -1.00000000000000, 0.000000000000000, 0.000000000000000 ) );
#403 = CARTESIAN_POINT( '', ( 1.38777878078144E-015, 1.38777878078144E-015, 25.0000000000000 ) );
#404 = DIRECTION( '', ( -5.55111512312578E-017, -5.55111512312578E-017, -1.00000000000000 ) );
#405 = DIRECTION( '', ( 1.23259516440783E-032, -1.00000000000000, 5.55111512312578E-017 ) );
#406 = CARTESIAN_POINT( '', ( 0.000000000000000, 0.000000000000000, 0.0537718298423069 ) );
#407 = DIRECTION( '', ( 0.000000000000000, 0.000000000000000, 1.00000000000000 ) );
#408 = DIRECTION( '', ( 1.00000000000000, 0.000000000000000, 0.000000000000000 ) );
#409 = CARTESIAN_POINT( '', ( -7.77156117237610E-016, -7.77156117237609E-016, -14.0000000000000 ) );
#410 = DIRECTION( '', ( -5.55111512312578E-017, -5.55111512312578E-017, -1.00000000000000 ) );
#411 = DIRECTION( '', ( 1.23259516440783E-032, -1.00000000000000, 5.55111512312578E-017 ) );
#412 = CARTESIAN_POINT( '', ( 1.36982092335813E-015, 1.36982092335813E-015, 24.6765000000000 ) );
#413 = DIRECTION( '', ( -5.55111512312578E-017, -5.55111512312578E-017, -1.00000000000000 ) );
#414 = DIRECTION( '', ( -1.00000000000000, 0.000000000000000, 5.55111512312578E-017 ) );
#415 = CARTESIAN_POINT( '', ( -8.32667268468868E-016, -8.32667268468867E-016, -15.0000000000000 ) );
#416 = DIRECTION( '', ( -5.55111512312578E-017, -5.55111512312578E-017, -1.00000000000000 ) );
#417 = DIRECTION( '', ( 1.23259516440783E-032, -1.00000000000000, 5.55111512312578E-017 ) );
ENDSEC;
END-ISO-10303-21;
