ISO-10303-21;
HEADER;
FILE_DESCRIPTION( ( 'Unknown' ), '1' );
FILE_NAME( 'E:/98-Dis_3D_per_controllo/MCF/6139020_MCF28x85_M10x15/6139020_MCF28x85_M10x15.stp', 'Unknown', ( 'Unknown' ), ( 'Unknown' ), 'PSStep 11.0', 'Unknown', '  ' );
FILE_SCHEMA( ( 'AUTOMOTIVE_DESIGN { 1 0 10303 214 1 1 1 1 }' ) );
ENDSEC;
DATA;
#1 = MECHANICAL_DESIGN_GEOMETRIC_PRESENTATION_REPRESENTATION( ' ', ( #10, #11, #12, #13, #14, #15, #16, #17, #18, #19, #20, #21, #22, #23, #24 ), #6 );
#2 = PRODUCT_DEFINITION_CONTEXT( '', #25, 'design' );
#3 = APPLICATION_PROTOCOL_DEFINITION( 'INTERNATIONAL STANDARD', 'automotive_design', 2001, #25 );
#4 = PRODUCT_CATEGORY_RELATIONSHIP( 'NONE', 'NONE', #26, #27 );
#5 = SHAPE_DEFINITION_REPRESENTATION( #28, #29 );
#6 =  ( GEOMETRIC_REPRESENTATION_CONTEXT( 3 )GLOBAL_UNCERTAINTY_ASSIGNED_CONTEXT( ( #32 ) )GLOBAL_UNIT_ASSIGNED_CONTEXT( ( #34, #35, #36 ) )REPRESENTATION_CONTEXT( 'NONE', 'WORKSPACE' ) );
#10 = STYLED_ITEM( '', ( #38 ), #39 );
#11 = STYLED_ITEM( '', ( #40 ), #41 );
#12 = STYLED_ITEM( '', ( #42 ), #43 );
#13 = STYLED_ITEM( '', ( #44 ), #45 );
#14 = STYLED_ITEM( '', ( #46 ), #47 );
#15 = STYLED_ITEM( '', ( #48 ), #49 );
#16 = STYLED_ITEM( '', ( #50 ), #51 );
#17 = STYLED_ITEM( '', ( #52 ), #53 );
#18 = STYLED_ITEM( '', ( #54 ), #55 );
#19 = STYLED_ITEM( '', ( #56 ), #57 );
#20 = STYLED_ITEM( '', ( #58 ), #59 );
#21 = STYLED_ITEM( '', ( #60 ), #61 );
#22 = STYLED_ITEM( '', ( #62 ), #63 );
#23 = STYLED_ITEM( '', ( #64 ), #65 );
#24 = STYLED_ITEM( '', ( #66 ), #67 );
#25 = APPLICATION_CONTEXT( 'core data for automotive mechanical design processes' );
#26 = PRODUCT_CATEGORY( 'part', 'NONE' );
#27 = PRODUCT_RELATED_PRODUCT_CATEGORY( 'detail', ' ', ( #68 ) );
#28 = PRODUCT_DEFINITION_SHAPE( 'NONE', 'NONE', #69 );
#29 = ADVANCED_BREP_SHAPE_REPRESENTATION( '8900065', ( #70, #71 ), #6 );
#32 = UNCERTAINTY_MEASURE_WITH_UNIT( LENGTH_MEASURE( 0.00100000000000000 ), #34, '', '' );
#34 =  ( CONVERSION_BASED_UNIT( 'MILLIMETRE', #74 )LENGTH_UNIT(  )NAMED_UNIT( #77 ) );
#35 =  ( NAMED_UNIT( #79 )PLANE_ANGLE_UNIT(  )SI_UNIT( $, .RADIAN. ) );
#36 =  ( NAMED_UNIT( #79 )SI_UNIT( $, .STERADIAN. )SOLID_ANGLE_UNIT(  ) );
#38 = PRESENTATION_STYLE_ASSIGNMENT( ( #85 ) );
#39 = ADVANCED_FACE( '', ( #86, #87 ), #88, .T. );
#40 = PRESENTATION_STYLE_ASSIGNMENT( ( #89 ) );
#41 = ADVANCED_FACE( '', ( #90 ), #91, .T. );
#42 = PRESENTATION_STYLE_ASSIGNMENT( ( #92 ) );
#43 = ADVANCED_FACE( '', ( #93, #94 ), #95, .T. );
#44 = PRESENTATION_STYLE_ASSIGNMENT( ( #96 ) );
#45 = ADVANCED_FACE( '', ( #97, #98 ), #99, .T. );
#46 = PRESENTATION_STYLE_ASSIGNMENT( ( #100 ) );
#47 = ADVANCED_FACE( '', ( #101, #102 ), #103, .T. );
#48 = PRESENTATION_STYLE_ASSIGNMENT( ( #104 ) );
#49 = ADVANCED_FACE( '', ( #105, #106 ), #107, .T. );
#50 = PRESENTATION_STYLE_ASSIGNMENT( ( #108 ) );
#51 = ADVANCED_FACE( '', ( #109, #110 ), #111, .T. );
#52 = PRESENTATION_STYLE_ASSIGNMENT( ( #112 ) );
#53 = ADVANCED_FACE( '', ( #113, #114 ), #115, .T. );
#54 = PRESENTATION_STYLE_ASSIGNMENT( ( #116 ) );
#55 = ADVANCED_FACE( '', ( #117, #118 ), #119, .F. );
#56 = PRESENTATION_STYLE_ASSIGNMENT( ( #120 ) );
#57 = ADVANCED_FACE( '', ( #121, #122 ), #123, .F. );
#58 = PRESENTATION_STYLE_ASSIGNMENT( ( #124 ) );
#59 = ADVANCED_FACE( '', ( #125 ), #126, .T. );
#60 = PRESENTATION_STYLE_ASSIGNMENT( ( #127 ) );
#61 = ADVANCED_FACE( '', ( #128, #129 ), #130, .F. );
#62 = PRESENTATION_STYLE_ASSIGNMENT( ( #131 ) );
#63 = ADVANCED_FACE( '', ( #132 ), #133, .F. );
#64 = PRESENTATION_STYLE_ASSIGNMENT( ( #134 ) );
#65 = ADVANCED_FACE( '', ( #135, #136 ), #137, .T. );
#66 = PRESENTATION_STYLE_ASSIGNMENT( ( #138 ) );
#67 = ADVANCED_FACE( '', ( #139, #140 ), #141, .T. );
#68 = PRODUCT( '8900065', '8900065', 'PART-8900065-DESC', ( #142 ) );
#69 = PRODUCT_DEFINITION( 'NONE', 'NONE', #143, #2 );
#70 = BREP_WITH_VOIDS( '8900065', #144, ( #145 ) );
#71 = AXIS2_PLACEMENT_3D( '', #146, #147, #148 );
#74 = LENGTH_MEASURE_WITH_UNIT( LENGTH_MEASURE( 1.00000000000000 ), #149 );
#77 = DIMENSIONAL_EXPONENTS( 1.00000000000000, 0.000000000000000, 0.000000000000000, 0.000000000000000, 0.000000000000000, 0.000000000000000, 0.000000000000000 );
#79 = DIMENSIONAL_EXPONENTS( 0.000000000000000, 0.000000000000000, 0.000000000000000, 0.000000000000000, 0.000000000000000, 0.000000000000000, 0.000000000000000 );
#85 = SURFACE_STYLE_USAGE( .BOTH., #150 );
#86 = FACE_OUTER_BOUND( '', #151, .T. );
#87 = FACE_OUTER_BOUND( '', #152, .T. );
#88 = CYLINDRICAL_SURFACE( '', #153, 5.00000000000000 );
#89 = SURFACE_STYLE_USAGE( .BOTH., #154 );
#90 = FACE_OUTER_BOUND( '', #155, .T. );
#91 = PLANE( '', #156 );
#92 = SURFACE_STYLE_USAGE( .BOTH., #157 );
#93 = FACE_OUTER_BOUND( '', #158, .T. );
#94 = FACE_OUTER_BOUND( '', #159, .T. );
#95 = TOROIDAL_SURFACE( '', #160, 11.9856632659569, 2.00000000000000 );
#96 = SURFACE_STYLE_USAGE( .BOTH., #161 );
#97 = FACE_BOUND( '', #162, .T. );
#98 = FACE_OUTER_BOUND( '', #163, .T. );
#99 = CONICAL_SURFACE( '', #164, 5.00000000000000, 0.785398163397448 );
#100 = SURFACE_STYLE_USAGE( .BOTH., #165 );
#101 = FACE_OUTER_BOUND( '', #166, .T. );
#102 = FACE_OUTER_BOUND( '', #167, .T. );
#103 = TOROIDAL_SURFACE( '', #168, 5.18800000000000, 1.00000000000000 );
#104 = SURFACE_STYLE_USAGE( .BOTH., #169 );
#105 = FACE_BOUND( '', #170, .T. );
#106 = FACE_OUTER_BOUND( '', #171, .T. );
#107 = CONICAL_SURFACE( '', #172, 13.6500000000000, 0.0803819838897778 );
#108 = SURFACE_STYLE_USAGE( .BOTH., #173 );
#109 = FACE_OUTER_BOUND( '', #174, .T. );
#110 = FACE_BOUND( '', #175, .T. );
#111 = CONICAL_SURFACE( '', #176, 14.0000000000000, 0.00714273566941349 );
#112 = SURFACE_STYLE_USAGE( .BOTH., #177 );
#113 = FACE_OUTER_BOUND( '', #178, .T. );
#114 = FACE_OUTER_BOUND( '', #179, .T. );
#115 = TOROIDAL_SURFACE( '', #180, 9.82731620349102, 1.00000000000000 );
#116 = SURFACE_STYLE_USAGE( .BOTH., #181 );
#117 = FACE_OUTER_BOUND( '', #182, .T. );
#118 = FACE_OUTER_BOUND( '', #183, .T. );
#119 = CYLINDRICAL_SURFACE( '', #184, 4.18800000000000 );
#120 = SURFACE_STYLE_USAGE( .BOTH., #185 );
#121 = FACE_OUTER_BOUND( '', #186, .T. );
#122 = FACE_BOUND( '', #187, .T. );
#123 = CONICAL_SURFACE( '', #188, 4.18800000000000, 1.02974425867665 );
#124 = SURFACE_STYLE_USAGE( .BOTH., #189 );
#125 = FACE_OUTER_BOUND( '', #190, .T. );
#126 = PLANE( '', #191 );
#127 = SURFACE_STYLE_USAGE( .BOTH., #192 );
#128 = FACE_OUTER_BOUND( '', #193, .T. );
#129 = FACE_OUTER_BOUND( '', #194, .T. );
#130 = CYLINDRICAL_SURFACE( '', #195, 4.18800000000000 );
#131 = SURFACE_STYLE_USAGE( .BOTH., #196 );
#132 = FACE_OUTER_BOUND( '', #197, .T. );
#133 = PLANE( '', #198 );
#134 = SURFACE_STYLE_USAGE( .BOTH., #199 );
#135 = FACE_OUTER_BOUND( '', #200, .T. );
#136 = FACE_BOUND( '', #201, .T. );
#137 = CONICAL_SURFACE( '', #202, 4.00000000000000, 0.785398163397448 );
#138 = SURFACE_STYLE_USAGE( .BOTH., #203 );
#139 = FACE_OUTER_BOUND( '', #204, .T. );
#140 = FACE_BOUND( '', #205, .T. );
#141 = PLANE( '', #206 );
#142 = PRODUCT_CONTEXT( '', #25, 'mechanical' );
#143 = PRODUCT_DEFINITION_FORMATION_WITH_SPECIFIED_SOURCE( ' ', 'NONE', #68, .NOT_KNOWN. );
#144 = CLOSED_SHELL( '', ( #41, #43, #67, #47, #49, #51, #53, #65, #59, #39 ) );
#145 = ORIENTED_CLOSED_SHELL( '', *, #207, .T. );
#146 = CARTESIAN_POINT( '', ( 0.000000000000000, 0.000000000000000, 0.000000000000000 ) );
#147 = DIRECTION( '', ( 0.000000000000000, 0.000000000000000, 1.00000000000000 ) );
#148 = DIRECTION( '', ( 1.00000000000000, 0.000000000000000, 0.000000000000000 ) );
#149 =  ( LENGTH_UNIT(  )NAMED_UNIT( #77 )SI_UNIT( .MILLI., .METRE. ) );
#150 = SURFACE_SIDE_STYLE( '', ( #209 ) );
#151 = EDGE_LOOP( '', ( #210 ) );
#152 = EDGE_LOOP( '', ( #211 ) );
#153 = AXIS2_PLACEMENT_3D( '', #212, #213, #214 );
#154 = SURFACE_SIDE_STYLE( '', ( #215 ) );
#155 = EDGE_LOOP( '', ( #216 ) );
#156 = AXIS2_PLACEMENT_3D( '', #217, #218, #219 );
#157 = SURFACE_SIDE_STYLE( '', ( #220 ) );
#158 = EDGE_LOOP( '', ( #221 ) );
#159 = EDGE_LOOP( '', ( #222 ) );
#160 = AXIS2_PLACEMENT_3D( '', #223, #224, #225 );
#161 = SURFACE_SIDE_STYLE( '', ( #226 ) );
#162 = EDGE_LOOP( '', ( #227 ) );
#163 = EDGE_LOOP( '', ( #228 ) );
#164 = AXIS2_PLACEMENT_3D( '', #229, #230, #231 );
#165 = SURFACE_SIDE_STYLE( '', ( #232 ) );
#166 = EDGE_LOOP( '', ( #233 ) );
#167 = EDGE_LOOP( '', ( #234 ) );
#168 = AXIS2_PLACEMENT_3D( '', #235, #236, #237 );
#169 = SURFACE_SIDE_STYLE( '', ( #238 ) );
#170 = EDGE_LOOP( '', ( #239 ) );
#171 = EDGE_LOOP( '', ( #240 ) );
#172 = AXIS2_PLACEMENT_3D( '', #241, #242, #243 );
#173 = SURFACE_SIDE_STYLE( '', ( #244 ) );
#174 = EDGE_LOOP( '', ( #245 ) );
#175 = EDGE_LOOP( '', ( #246 ) );
#176 = AXIS2_PLACEMENT_3D( '', #247, #248, #249 );
#177 = SURFACE_SIDE_STYLE( '', ( #250 ) );
#178 = EDGE_LOOP( '', ( #251 ) );
#179 = EDGE_LOOP( '', ( #252 ) );
#180 = AXIS2_PLACEMENT_3D( '', #253, #254, #255 );
#181 = SURFACE_SIDE_STYLE( '', ( #256 ) );
#182 = EDGE_LOOP( '', ( #257 ) );
#183 = EDGE_LOOP( '', ( #258 ) );
#184 = AXIS2_PLACEMENT_3D( '', #259, #260, #261 );
#185 = SURFACE_SIDE_STYLE( '', ( #262 ) );
#186 = EDGE_LOOP( '', ( #263 ) );
#187 = VERTEX_LOOP( '', #264 );
#188 = AXIS2_PLACEMENT_3D( '', #265, #266, #267 );
#189 = SURFACE_SIDE_STYLE( '', ( #268 ) );
#190 = EDGE_LOOP( '', ( #269 ) );
#191 = AXIS2_PLACEMENT_3D( '', #270, #271, #272 );
#192 = SURFACE_SIDE_STYLE( '', ( #273 ) );
#193 = EDGE_LOOP( '', ( #274 ) );
#194 = EDGE_LOOP( '', ( #275 ) );
#195 = AXIS2_PLACEMENT_3D( '', #276, #277, #278 );
#196 = SURFACE_SIDE_STYLE( '', ( #279 ) );
#197 = EDGE_LOOP( '', ( #280 ) );
#198 = AXIS2_PLACEMENT_3D( '', #281, #282, #283 );
#199 = SURFACE_SIDE_STYLE( '', ( #284 ) );
#200 = EDGE_LOOP( '', ( #285 ) );
#201 = EDGE_LOOP( '', ( #286 ) );
#202 = AXIS2_PLACEMENT_3D( '', #287, #288, #289 );
#203 = SURFACE_SIDE_STYLE( '', ( #290 ) );
#204 = EDGE_LOOP( '', ( #291 ) );
#205 = EDGE_LOOP( '', ( #292 ) );
#206 = AXIS2_PLACEMENT_3D( '', #293, #294, #295 );
#207 = CLOSED_SHELL( '', ( #57, #61, #55, #45, #63 ) );
#209 = SURFACE_STYLE_FILL_AREA( #296 );
#210 = ORIENTED_EDGE( '', *, *, #297, .T. );
#211 = ORIENTED_EDGE( '', *, *, #298, .T. );
#212 = CARTESIAN_POINT( '', ( 1.38777878078144E-015, 1.38777878078144E-015, -17.5000000000000 ) );
#213 = DIRECTION( '', ( 5.55111512312578E-017, 5.55111512312578E-017, 1.00000000000000 ) );
#214 = DIRECTION( '', ( 1.23259516440783E-032, -1.00000000000000, 5.55111512312578E-017 ) );
#215 = SURFACE_STYLE_FILL_AREA( #299 );
#216 = ORIENTED_EDGE( '', *, *, #300, .T. );
#217 = CARTESIAN_POINT( '', ( 0.000000000000000, 0.000000000000000, 42.5000000000000 ) );
#218 = DIRECTION( '', ( 0.000000000000000, 0.000000000000000, 1.00000000000000 ) );
#219 = DIRECTION( '', ( 1.00000000000000, 0.000000000000000, 0.000000000000000 ) );
#220 = SURFACE_STYLE_FILL_AREA( #301 );
#221 = ORIENTED_EDGE( '', *, *, #302, .F. );
#222 = ORIENTED_EDGE( '', *, *, #300, .F. );
#223 = CARTESIAN_POINT( '', ( 0.000000000000000, 0.000000000000000, 40.5000000000000 ) );
#224 = DIRECTION( '', ( 0.000000000000000, 0.000000000000000, 1.00000000000000 ) );
#225 = DIRECTION( '', ( 1.00000000000000, 0.000000000000000, 0.000000000000000 ) );
#226 = SURFACE_STYLE_FILL_AREA( #303 );
#227 = ORIENTED_EDGE( '', *, *, #304, .F. );
#228 = ORIENTED_EDGE( '', *, *, #305, .F. );
#229 = CARTESIAN_POINT( '', ( 1.33226762955019E-015, 1.33226762955019E-015, -18.5000000000000 ) );
#230 = DIRECTION( '', ( -5.55111512312578E-017, -5.55111512312578E-017, -1.00000000000000 ) );
#231 = DIRECTION( '', ( 1.23259516440783E-032, -1.00000000000000, 5.55111512312578E-017 ) );
#232 = SURFACE_STYLE_FILL_AREA( #306 );
#233 = ORIENTED_EDGE( '', *, *, #297, .F. );
#234 = ORIENTED_EDGE( '', *, *, #307, .F. );
#235 = CARTESIAN_POINT( '', ( 0.000000000000000, 0.000000000000000, -41.5000000000000 ) );
#236 = DIRECTION( '', ( 0.000000000000000, 0.000000000000000, -1.00000000000000 ) );
#237 = DIRECTION( '', ( -1.00000000000000, 0.000000000000000, 0.000000000000000 ) );
#238 = SURFACE_STYLE_FILL_AREA( #308 );
#239 = ORIENTED_EDGE( '', *, *, #309, .T. );
#240 = ORIENTED_EDGE( '', *, *, #310, .F. );
#241 = CARTESIAN_POINT( '', ( 0.000000000000000, 0.000000000000000, -6.50000000000000 ) );
#242 = DIRECTION( '', ( -0.000000000000000, -0.000000000000000, 1.00000000000000 ) );
#243 = DIRECTION( '', ( 1.00000000000000, 0.000000000000000, 0.000000000000000 ) );
#244 = SURFACE_STYLE_FILL_AREA( #311 );
#245 = ORIENTED_EDGE( '', *, *, #302, .T. );
#246 = ORIENTED_EDGE( '', *, *, #310, .T. );
#247 = CARTESIAN_POINT( '', ( 0.000000000000000, 0.000000000000000, 42.5000000000000 ) );
#248 = DIRECTION( '', ( -0.000000000000000, -0.000000000000000, 1.00000000000000 ) );
#249 = DIRECTION( '', ( 1.00000000000000, 0.000000000000000, 0.000000000000000 ) );
#250 = SURFACE_STYLE_FILL_AREA( #312 );
#251 = ORIENTED_EDGE( '', *, *, #313, .F. );
#252 = ORIENTED_EDGE( '', *, *, #309, .F. );
#253 = CARTESIAN_POINT( '', ( 0.000000000000000, 0.000000000000000, -41.5000000000000 ) );
#254 = DIRECTION( '', ( 0.000000000000000, 0.000000000000000, -1.00000000000000 ) );
#255 = DIRECTION( '', ( -1.00000000000000, 0.000000000000000, 0.000000000000000 ) );
#256 = SURFACE_STYLE_FILL_AREA( #314 );
#257 = ORIENTED_EDGE( '', *, *, #305, .T. );
#258 = ORIENTED_EDGE( '', *, *, #315, .F. );
#259 = CARTESIAN_POINT( '', ( 0.000000000000000, 0.000000000000000, -42.5000000000000 ) );
#260 = DIRECTION( '', ( -0.000000000000000, 0.000000000000000, -1.00000000000000 ) );
#261 = DIRECTION( '', ( 0.000000000000000, 1.00000000000000, 0.000000000000000 ) );
#262 = SURFACE_STYLE_FILL_AREA( #316 );
#263 = ORIENTED_EDGE( '', *, *, #317, .F. );
#264 = VERTEX_POINT( '', #318 );
#265 = CARTESIAN_POINT( '', ( 0.000000000000000, 0.000000000000000, 7.50000000000000 ) );
#266 = DIRECTION( '', ( 0.000000000000000, -0.000000000000000, -1.00000000000000 ) );
#267 = DIRECTION( '', ( 0.000000000000000, -1.00000000000000, 0.000000000000000 ) );
#268 = SURFACE_STYLE_FILL_AREA( #319 );
#269 = ORIENTED_EDGE( '', *, *, #320, .T. );
#270 = CARTESIAN_POINT( '', ( -8.32667268468868E-016, -8.32667268468867E-016, -57.5000000000000 ) );
#271 = DIRECTION( '', ( -5.55111512312578E-017, -5.55111512312578E-017, -1.00000000000000 ) );
#272 = DIRECTION( '', ( 1.23259516440783E-032, -1.00000000000000, 5.55111512312578E-017 ) );
#273 = SURFACE_STYLE_FILL_AREA( #321 );
#274 = ORIENTED_EDGE( '', *, *, #317, .T. );
#275 = ORIENTED_EDGE( '', *, *, #315, .T. );
#276 = CARTESIAN_POINT( '', ( 0.000000000000000, 0.000000000000000, -42.5000000000000 ) );
#277 = DIRECTION( '', ( -0.000000000000000, 0.000000000000000, -1.00000000000000 ) );
#278 = DIRECTION( '', ( 0.000000000000000, 1.00000000000000, 0.000000000000000 ) );
#279 = SURFACE_STYLE_FILL_AREA( #322 );
#280 = ORIENTED_EDGE( '', *, *, #304, .T. );
#281 = CARTESIAN_POINT( '', ( 1.38777878078144E-015, 1.38777878078144E-015, -17.5000000000000 ) );
#282 = DIRECTION( '', ( -5.55111512312578E-017, -5.55111512312578E-017, -1.00000000000000 ) );
#283 = DIRECTION( '', ( 1.23259516440783E-032, -1.00000000000000, 5.55111512312578E-017 ) );
#284 = SURFACE_STYLE_FILL_AREA( #323 );
#285 = ORIENTED_EDGE( '', *, *, #298, .F. );
#286 = ORIENTED_EDGE( '', *, *, #320, .F. );
#287 = CARTESIAN_POINT( '', ( -8.32667268468868E-016, -8.32667268468867E-016, -57.5000000000000 ) );
#288 = DIRECTION( '', ( 5.55111512312578E-017, 5.55111512312578E-017, 1.00000000000000 ) );
#289 = DIRECTION( '', ( -1.23259516440783E-032, 1.00000000000000, -5.55111512312578E-017 ) );
#290 = SURFACE_STYLE_FILL_AREA( #324 );
#291 = ORIENTED_EDGE( '', *, *, #313, .T. );
#292 = ORIENTED_EDGE( '', *, *, #307, .T. );
#293 = CARTESIAN_POINT( '', ( 10.7500000000000, 0.000000000000000, -42.5000000000000 ) );
#294 = DIRECTION( '', ( 0.000000000000000, 0.000000000000000, -1.00000000000000 ) );
#295 = DIRECTION( '', ( -1.00000000000000, 0.000000000000000, 0.000000000000000 ) );
#296 = FILL_AREA_STYLE( '', ( #325 ) );
#297 = EDGE_CURVE( '', #326, #326, #327, .F. );
#298 = EDGE_CURVE( '', #328, #328, #329, .F. );
#299 = FILL_AREA_STYLE( '', ( #330 ) );
#300 = EDGE_CURVE( '', #331, #331, #332, .T. );
#301 = FILL_AREA_STYLE( '', ( #333 ) );
#302 = EDGE_CURVE( '', #334, #334, #335, .T. );
#303 = FILL_AREA_STYLE( '', ( #336 ) );
#304 = EDGE_CURVE( '', #337, #337, #338, .F. );
#305 = EDGE_CURVE( '', #339, #339, #340, .T. );
#306 = FILL_AREA_STYLE( '', ( #341 ) );
#307 = EDGE_CURVE( '', #342, #342, #343, .F. );
#308 = FILL_AREA_STYLE( '', ( #344 ) );
#309 = EDGE_CURVE( '', #345, #345, #346, .F. );
#310 = EDGE_CURVE( '', #347, #347, #348, .T. );
#311 = FILL_AREA_STYLE( '', ( #349 ) );
#312 = FILL_AREA_STYLE( '', ( #350 ) );
#313 = EDGE_CURVE( '', #351, #351, #352, .T. );
#314 = FILL_AREA_STYLE( '', ( #353 ) );
#315 = EDGE_CURVE( '', #354, #354, #355, .T. );
#316 = FILL_AREA_STYLE( '', ( #356 ) );
#317 = EDGE_CURVE( '', #357, #357, #358, .T. );
#318 = CARTESIAN_POINT( '', ( 0.000000000000000, 0.000000000000000, 10.0164042724874 ) );
#319 = FILL_AREA_STYLE( '', ( #359 ) );
#320 = EDGE_CURVE( '', #360, #360, #361, .T. );
#321 = FILL_AREA_STYLE( '', ( #362 ) );
#322 = FILL_AREA_STYLE( '', ( #363 ) );
#323 = FILL_AREA_STYLE( '', ( #364 ) );
#324 = FILL_AREA_STYLE( '', ( #365 ) );
#325 = FILL_AREA_STYLE_COLOUR( '', #366 );
#326 = VERTEX_POINT( '', #367 );
#327 = CIRCLE( '', #368, 5.00000000000000 );
#328 = VERTEX_POINT( '', #369 );
#329 = CIRCLE( '', #370, 5.00000000000000 );
#330 = FILL_AREA_STYLE_COLOUR( '', #371 );
#331 = VERTEX_POINT( '', #372 );
#332 = CIRCLE( '', #373, 11.9856632659569 );
#333 = FILL_AREA_STYLE_COLOUR( '', #374 );
#334 = VERTEX_POINT( '', #375 );
#335 = CIRCLE( '', #376, 13.9856122475009 );
#336 = FILL_AREA_STYLE_COLOUR( '', #377 );
#337 = VERTEX_POINT( '', #378 );
#338 = CIRCLE( '', #379, 4.00000000000000 );
#339 = VERTEX_POINT( '', #380 );
#340 = CIRCLE( '', #381, 4.18800000000000 );
#341 = FILL_AREA_STYLE_COLOUR( '', #382 );
#342 = VERTEX_POINT( '', #383 );
#343 = CIRCLE( '', #384, 5.18800000000000 );
#344 = FILL_AREA_STYLE_COLOUR( '', #385 );
#345 = VERTEX_POINT( '', #386 );
#346 = CIRCLE( '', #387, 10.8240873109462 );
#347 = VERTEX_POINT( '', #388 );
#348 = CIRCLE( '', #389, 13.6500000000000 );
#349 = FILL_AREA_STYLE_COLOUR( '', #390 );
#350 = FILL_AREA_STYLE_COLOUR( '', #391 );
#351 = VERTEX_POINT( '', #392 );
#352 = CIRCLE( '', #393, 9.82731620349102 );
#353 = FILL_AREA_STYLE_COLOUR( '', #394 );
#354 = VERTEX_POINT( '', #395 );
#355 = CIRCLE( '', #396, 4.18800000000000 );
#356 = FILL_AREA_STYLE_COLOUR( '', #397 );
#357 = VERTEX_POINT( '', #398 );
#358 = CIRCLE( '', #399, 4.18800000000000 );
#359 = FILL_AREA_STYLE_COLOUR( '', #400 );
#360 = VERTEX_POINT( '', #401 );
#361 = CIRCLE( '', #402, 4.00000000000000 );
#362 = FILL_AREA_STYLE_COLOUR( '', #403 );
#363 = FILL_AREA_STYLE_COLOUR( '', #404 );
#364 = FILL_AREA_STYLE_COLOUR( '', #405 );
#365 = FILL_AREA_STYLE_COLOUR( '', #406 );
#366 = COLOUR_RGB( '', 0.752941191196442, 0.752941191196442, 0.752941191196442 );
#367 = CARTESIAN_POINT( '', ( 5.00000000000000, 0.000000000000000, -42.4821690282227 ) );
#368 = AXIS2_PLACEMENT_3D( '', #407, #408, #409 );
#369 = CARTESIAN_POINT( '', ( -7.77156117237610E-016, -5.00000000000000, -56.5000000000000 ) );
#370 = AXIS2_PLACEMENT_3D( '', #410, #411, #412 );
#371 = COLOUR_RGB( '', 0.200000002980232, 0.200000002980232, 0.200000002980232 );
#372 = CARTESIAN_POINT( '', ( 11.9856632659569, 0.000000000000000, 42.5000000000000 ) );
#373 = AXIS2_PLACEMENT_3D( '', #413, #414, #415 );
#374 = COLOUR_RGB( '', 0.200000002980232, 0.200000002980232, 0.200000002980232 );
#375 = CARTESIAN_POINT( '', ( -13.9856122475009, 0.000000000000000, 40.4857146501318 ) );
#376 = AXIS2_PLACEMENT_3D( '', #416, #417, #418 );
#377 = COLOUR_RGB( '', 0.666666686534882, 0.733333349227905, 0.866666674613953 );
#378 = CARTESIAN_POINT( '', ( 1.38777878078144E-015, -4.00000000000000, -17.5000000000000 ) );
#379 = AXIS2_PLACEMENT_3D( '', #419, #420, #421 );
#380 = CARTESIAN_POINT( '', ( -4.18800000000000, 1.37734268434997E-015, -17.6880000000000 ) );
#381 = AXIS2_PLACEMENT_3D( '', #422, #423, #424 );
#382 = COLOUR_RGB( '', 0.200000002980232, 0.200000002980232, 0.200000002980232 );
#383 = CARTESIAN_POINT( '', ( -5.18800000000000, 0.000000000000000, -42.5000000000000 ) );
#384 = AXIS2_PLACEMENT_3D( '', #425, #426, #427 );
#385 = COLOUR_RGB( '', 0.200000002980232, 0.200000002980232, 0.200000002980232 );
#386 = CARTESIAN_POINT( '', ( -10.8240873109462, 0.000000000000000, -41.5802954503228 ) );
#387 = AXIS2_PLACEMENT_3D( '', #428, #429, #430 );
#388 = CARTESIAN_POINT( '', ( 13.6500000000000, 0.000000000000000, -6.50000000000000 ) );
#389 = AXIS2_PLACEMENT_3D( '', #431, #432, #433 );
#390 = COLOUR_RGB( '', 0.200000002980232, 0.200000002980232, 0.200000002980232 );
#391 = COLOUR_RGB( '', 0.200000002980232, 0.200000002980232, 0.200000002980232 );
#392 = CARTESIAN_POINT( '', ( -9.82731620349102, 0.000000000000000, -42.5000000000000 ) );
#393 = AXIS2_PLACEMENT_3D( '', #434, #435, #436 );
#394 = COLOUR_RGB( '', 0.752941191196442, 0.752941191196442, 0.752941191196442 );
#395 = CARTESIAN_POINT( '', ( 0.000000000000000, 4.18800000000000, -2.50000000000000 ) );
#396 = AXIS2_PLACEMENT_3D( '', #437, #438, #439 );
#397 = COLOUR_RGB( '', 0.200000002980232, 0.200000002980232, 0.200000002980232 );
#398 = CARTESIAN_POINT( '', ( 0.000000000000000, -4.18800000000000, 7.50000000000000 ) );
#399 = AXIS2_PLACEMENT_3D( '', #440, #441, #442 );
#400 = COLOUR_RGB( '', 0.666666686534882, 0.733333349227905, 0.866666674613953 );
#401 = CARTESIAN_POINT( '', ( -8.32667268468868E-016, -4.00000000000000, -57.5000000000000 ) );
#402 = AXIS2_PLACEMENT_3D( '', #443, #444, #445 );
#403 = COLOUR_RGB( '', 0.200000002980232, 0.200000002980232, 0.200000002980232 );
#404 = COLOUR_RGB( '', 0.666666686534882, 0.733333349227905, 0.866666674613953 );
#405 = COLOUR_RGB( '', 0.666666686534882, 0.733333349227905, 0.866666674613953 );
#406 = COLOUR_RGB( '', 0.200000002980232, 0.200000002980232, 0.200000002980232 );
#407 = CARTESIAN_POINT( '', ( 0.000000000000000, 0.000000000000000, -42.4821690282227 ) );
#408 = DIRECTION( '', ( 0.000000000000000, 0.000000000000000, 1.00000000000000 ) );
#409 = DIRECTION( '', ( 1.00000000000000, 0.000000000000000, 0.000000000000000 ) );
#410 = CARTESIAN_POINT( '', ( -7.77156117237610E-016, -7.77156117237609E-016, -56.5000000000000 ) );
#411 = DIRECTION( '', ( -5.55111512312578E-017, -5.55111512312578E-017, -1.00000000000000 ) );
#412 = DIRECTION( '', ( 1.23259516440783E-032, -1.00000000000000, 5.55111512312578E-017 ) );
#413 = CARTESIAN_POINT( '', ( 0.000000000000000, 0.000000000000000, 42.5000000000000 ) );
#414 = DIRECTION( '', ( 0.000000000000000, 0.000000000000000, 1.00000000000000 ) );
#415 = DIRECTION( '', ( 1.00000000000000, 0.000000000000000, 0.000000000000000 ) );
#416 = CARTESIAN_POINT( '', ( 0.000000000000000, 0.000000000000000, 40.4857146501318 ) );
#417 = DIRECTION( '', ( 0.000000000000000, 0.000000000000000, -1.00000000000000 ) );
#418 = DIRECTION( '', ( -1.00000000000000, 0.000000000000000, 0.000000000000000 ) );
#419 = CARTESIAN_POINT( '', ( 1.38777878078144E-015, 1.38777878078144E-015, -17.5000000000000 ) );
#420 = DIRECTION( '', ( -5.55111512312578E-017, -5.55111512312578E-017, -1.00000000000000 ) );
#421 = DIRECTION( '', ( 1.23259516440783E-032, -1.00000000000000, 5.55111512312578E-017 ) );
#422 = CARTESIAN_POINT( '', ( 1.37734268434997E-015, 1.37734268434997E-015, -17.6880000000000 ) );
#423 = DIRECTION( '', ( -5.55111512312578E-017, -5.55111512312578E-017, -1.00000000000000 ) );
#424 = DIRECTION( '', ( -1.00000000000000, 0.000000000000000, 5.55111512312578E-017 ) );
#425 = CARTESIAN_POINT( '', ( 0.000000000000000, 0.000000000000000, -42.5000000000000 ) );
#426 = DIRECTION( '', ( 0.000000000000000, 0.000000000000000, -1.00000000000000 ) );
#427 = DIRECTION( '', ( -1.00000000000000, 0.000000000000000, 0.000000000000000 ) );
#428 = CARTESIAN_POINT( '', ( 0.000000000000000, 0.000000000000000, -41.5802954503228 ) );
#429 = DIRECTION( '', ( 0.000000000000000, 0.000000000000000, -1.00000000000000 ) );
#430 = DIRECTION( '', ( -1.00000000000000, 0.000000000000000, 0.000000000000000 ) );
#431 = CARTESIAN_POINT( '', ( 0.000000000000000, 0.000000000000000, -6.50000000000000 ) );
#432 = DIRECTION( '', ( 0.000000000000000, 0.000000000000000, 1.00000000000000 ) );
#433 = DIRECTION( '', ( 1.00000000000000, 0.000000000000000, 0.000000000000000 ) );
#434 = CARTESIAN_POINT( '', ( 0.000000000000000, 0.000000000000000, -42.5000000000000 ) );
#435 = DIRECTION( '', ( 0.000000000000000, 0.000000000000000, -1.00000000000000 ) );
#436 = DIRECTION( '', ( -1.00000000000000, 0.000000000000000, 0.000000000000000 ) );
#437 = CARTESIAN_POINT( '', ( 0.000000000000000, 0.000000000000000, -2.50000000000000 ) );
#438 = DIRECTION( '', ( 0.000000000000000, 0.000000000000000, -1.00000000000000 ) );
#439 = DIRECTION( '', ( 0.000000000000000, 1.00000000000000, 0.000000000000000 ) );
#440 = CARTESIAN_POINT( '', ( 0.000000000000000, 0.000000000000000, 7.50000000000000 ) );
#441 = DIRECTION( '', ( 0.000000000000000, 0.000000000000000, 1.00000000000000 ) );
#442 = DIRECTION( '', ( 0.000000000000000, -1.00000000000000, 0.000000000000000 ) );
#443 = CARTESIAN_POINT( '', ( -8.32667268468868E-016, -8.32667268468867E-016, -57.5000000000000 ) );
#444 = DIRECTION( '', ( -5.55111512312578E-017, -5.55111512312578E-017, -1.00000000000000 ) );
#445 = DIRECTION( '', ( 1.23259516440783E-032, -1.00000000000000, 5.55111512312578E-017 ) );
ENDSEC;
END-ISO-10303-21;
