ISO-10303-21;
HEADER;
FILE_DESCRIPTION( ( 'Unknown' ), '1' );
FILE_NAME( 'E:/98-Dis_3D_per_controllo/MCF/6139030_MCF29x115_M08x15/6139030_MCF29x115_M08x15.stp', 'Unknown', ( 'Unknown' ), ( 'Unknown' ), 'PSStep 11.0', 'Unknown', '  ' );
FILE_SCHEMA( ( 'AUTOMOTIVE_DESIGN { 1 0 10303 214 1 1 1 1 }' ) );
ENDSEC;
DATA;
#1 = MECHANICAL_DESIGN_GEOMETRIC_PRESENTATION_REPRESENTATION( ' ', ( #10, #11, #12, #13, #14, #15, #16, #17, #18, #19, #20, #21, #22, #23, #24 ), #6 );
#2 = PRODUCT_DEFINITION_CONTEXT( '', #25, 'design' );
#3 = APPLICATION_PROTOCOL_DEFINITION( 'INTERNATIONAL STANDARD', 'automotive_design', 2001, #25 );
#4 = PRODUCT_CATEGORY_RELATIONSHIP( 'NONE', 'NONE', #26, #27 );
#5 = SHAPE_DEFINITION_REPRESENTATION( #28, #29 );
#6 =  ( GEOMETRIC_REPRESENTATION_CONTEXT( 3 )GLOBAL_UNCERTAINTY_ASSIGNED_CONTEXT( ( #32 ) )GLOBAL_UNIT_ASSIGNED_CONTEXT( ( #34, #35, #36 ) )REPRESENTATION_CONTEXT( 'NONE', 'WORKSPACE' ) );
#10 = STYLED_ITEM( '', ( #38 ), #39 );
#11 = STYLED_ITEM( '', ( #40 ), #41 );
#12 = STYLED_ITEM( '', ( #42 ), #43 );
#13 = STYLED_ITEM( '', ( #44 ), #45 );
#14 = STYLED_ITEM( '', ( #46 ), #47 );
#15 = STYLED_ITEM( '', ( #48 ), #49 );
#16 = STYLED_ITEM( '', ( #50 ), #51 );
#17 = STYLED_ITEM( '', ( #52 ), #53 );
#18 = STYLED_ITEM( '', ( #54 ), #55 );
#19 = STYLED_ITEM( '', ( #56 ), #57 );
#20 = STYLED_ITEM( '', ( #58 ), #59 );
#21 = STYLED_ITEM( '', ( #60 ), #61 );
#22 = STYLED_ITEM( '', ( #62 ), #63 );
#23 = STYLED_ITEM( '', ( #64 ), #65 );
#24 = STYLED_ITEM( '', ( #66 ), #67 );
#25 = APPLICATION_CONTEXT( 'core data for automotive mechanical design processes' );
#26 = PRODUCT_CATEGORY( 'part', 'NONE' );
#27 = PRODUCT_RELATED_PRODUCT_CATEGORY( 'detail', ' ', ( #68 ) );
#28 = PRODUCT_DEFINITION_SHAPE( 'NONE', 'NONE', #69 );
#29 = ADVANCED_BREP_SHAPE_REPRESENTATION( '6136050_MC29x115', ( #70, #71 ), #6 );
#32 = UNCERTAINTY_MEASURE_WITH_UNIT( LENGTH_MEASURE( 0.00100000000000000 ), #34, '', '' );
#34 =  ( CONVERSION_BASED_UNIT( 'MILLIMETRE', #74 )LENGTH_UNIT(  )NAMED_UNIT( #77 ) );
#35 =  ( NAMED_UNIT( #79 )PLANE_ANGLE_UNIT(  )SI_UNIT( $, .RADIAN. ) );
#36 =  ( NAMED_UNIT( #79 )SI_UNIT( $, .STERADIAN. )SOLID_ANGLE_UNIT(  ) );
#38 = PRESENTATION_STYLE_ASSIGNMENT( ( #85 ) );
#39 = ADVANCED_FACE( '', ( #86 ), #87, .T. );
#40 = PRESENTATION_STYLE_ASSIGNMENT( ( #88 ) );
#41 = ADVANCED_FACE( '', ( #89, #90 ), #91, .F. );
#42 = PRESENTATION_STYLE_ASSIGNMENT( ( #92 ) );
#43 = ADVANCED_FACE( '', ( #93, #94 ), #95, .T. );
#44 = PRESENTATION_STYLE_ASSIGNMENT( ( #96 ) );
#45 = ADVANCED_FACE( '', ( #97, #98 ), #99, .F. );
#46 = PRESENTATION_STYLE_ASSIGNMENT( ( #100 ) );
#47 = ADVANCED_FACE( '', ( #101, #102 ), #103, .T. );
#48 = PRESENTATION_STYLE_ASSIGNMENT( ( #104 ) );
#49 = ADVANCED_FACE( '', ( #105, #106 ), #107, .T. );
#50 = PRESENTATION_STYLE_ASSIGNMENT( ( #108 ) );
#51 = ADVANCED_FACE( '', ( #109 ), #110, .F. );
#52 = PRESENTATION_STYLE_ASSIGNMENT( ( #111 ) );
#53 = ADVANCED_FACE( '', ( #112, #113 ), #114, .T. );
#54 = PRESENTATION_STYLE_ASSIGNMENT( ( #115 ) );
#55 = ADVANCED_FACE( '', ( #116, #117 ), #118, .T. );
#56 = PRESENTATION_STYLE_ASSIGNMENT( ( #119 ) );
#57 = ADVANCED_FACE( '', ( #120, #121 ), #122, .T. );
#58 = PRESENTATION_STYLE_ASSIGNMENT( ( #123 ) );
#59 = ADVANCED_FACE( '', ( #124, #125 ), #126, .F. );
#60 = PRESENTATION_STYLE_ASSIGNMENT( ( #127 ) );
#61 = ADVANCED_FACE( '', ( #128, #129 ), #130, .T. );
#62 = PRESENTATION_STYLE_ASSIGNMENT( ( #131 ) );
#63 = ADVANCED_FACE( '', ( #132 ), #133, .F. );
#64 = PRESENTATION_STYLE_ASSIGNMENT( ( #134 ) );
#65 = ADVANCED_FACE( '', ( #135, #136 ), #137, .F. );
#66 = PRESENTATION_STYLE_ASSIGNMENT( ( #138 ) );
#67 = ADVANCED_FACE( '', ( #139, #140 ), #141, .T. );
#68 = PRODUCT( '6136050_MC29x115', '6136050_MC29x115', 'PART-6136050_MC29x115-DESC', ( #142 ) );
#69 = PRODUCT_DEFINITION( 'NONE', 'NONE', #143, #2 );
#70 = BREP_WITH_VOIDS( '6136050_MC29x115', #144, ( #145 ) );
#71 = AXIS2_PLACEMENT_3D( '', #146, #147, #148 );
#74 = LENGTH_MEASURE_WITH_UNIT( LENGTH_MEASURE( 1.00000000000000 ), #149 );
#77 = DIMENSIONAL_EXPONENTS( 1.00000000000000, 0.000000000000000, 0.000000000000000, 0.000000000000000, 0.000000000000000, 0.000000000000000, 0.000000000000000 );
#79 = DIMENSIONAL_EXPONENTS( 0.000000000000000, 0.000000000000000, 0.000000000000000, 0.000000000000000, 0.000000000000000, 0.000000000000000, 0.000000000000000 );
#85 = SURFACE_STYLE_USAGE( .BOTH., #150 );
#86 = FACE_OUTER_BOUND( '', #151, .T. );
#87 = PLANE( '', #152 );
#88 = SURFACE_STYLE_USAGE( .BOTH., #153 );
#89 = FACE_OUTER_BOUND( '', #154, .T. );
#90 = FACE_OUTER_BOUND( '', #155, .T. );
#91 = CYLINDRICAL_SURFACE( '', #156, 3.32350000000000 );
#92 = SURFACE_STYLE_USAGE( .BOTH., #157 );
#93 = FACE_OUTER_BOUND( '', #158, .T. );
#94 = FACE_BOUND( '', #159, .T. );
#95 = CONICAL_SURFACE( '', #160, 14.3500000000000, 0.00205479162865070 );
#96 = SURFACE_STYLE_USAGE( .BOTH., #161 );
#97 = FACE_OUTER_BOUND( '', #162, .T. );
#98 = FACE_BOUND( '', #163, .T. );
#99 = CONICAL_SURFACE( '', #164, 3.32350000000000, 1.02974425867665 );
#100 = SURFACE_STYLE_USAGE( .BOTH., #165 );
#101 = FACE_BOUND( '', #166, .T. );
#102 = FACE_OUTER_BOUND( '', #167, .T. );
#103 = CONICAL_SURFACE( '', #168, 4.00000000000000, 0.785398163397448 );
#104 = SURFACE_STYLE_USAGE( .BOTH., #169 );
#105 = FACE_OUTER_BOUND( '', #170, .T. );
#106 = FACE_OUTER_BOUND( '', #171, .T. );
#107 = TOROIDAL_SURFACE( '', #172, 10.3210893007139, 1.00000000000000 );
#108 = SURFACE_STYLE_USAGE( .BOTH., #173 );
#109 = FACE_OUTER_BOUND( '', #174, .T. );
#110 = PLANE( '', #175 );
#111 = SURFACE_STYLE_USAGE( .BOTH., #176 );
#112 = FACE_BOUND( '', #177, .T. );
#113 = FACE_OUTER_BOUND( '', #178, .T. );
#114 = CONICAL_SURFACE( '', #179, 11.2500000000000, 0.0736759259292283 );
#115 = SURFACE_STYLE_USAGE( .BOTH., #180 );
#116 = FACE_OUTER_BOUND( '', #181, .T. );
#117 = FACE_OUTER_BOUND( '', #182, .T. );
#118 = CYLINDRICAL_SURFACE( '', #183, 4.00000000000000 );
#119 = SURFACE_STYLE_USAGE( .BOTH., #184 );
#120 = FACE_OUTER_BOUND( '', #185, .T. );
#121 = FACE_OUTER_BOUND( '', #186, .T. );
#122 = TOROIDAL_SURFACE( '', #187, 4.82350000000000, 1.50000000000000 );
#123 = SURFACE_STYLE_USAGE( .BOTH., #188 );
#124 = FACE_BOUND( '', #189, .T. );
#125 = FACE_OUTER_BOUND( '', #190, .T. );
#126 = PLANE( '', #191 );
#127 = SURFACE_STYLE_USAGE( .BOTH., #192 );
#128 = FACE_OUTER_BOUND( '', #193, .T. );
#129 = FACE_BOUND( '', #194, .T. );
#130 = CONICAL_SURFACE( '', #195, 3.00000000000000, 0.785398163397448 );
#131 = SURFACE_STYLE_USAGE( .BOTH., #196 );
#132 = FACE_OUTER_BOUND( '', #197, .T. );
#133 = PLANE( '', #198 );
#134 = SURFACE_STYLE_USAGE( .BOTH., #199 );
#135 = FACE_OUTER_BOUND( '', #200, .T. );
#136 = FACE_OUTER_BOUND( '', #201, .T. );
#137 = CYLINDRICAL_SURFACE( '', #202, 3.32350000000000 );
#138 = SURFACE_STYLE_USAGE( .BOTH., #203 );
#139 = FACE_OUTER_BOUND( '', #204, .T. );
#140 = FACE_OUTER_BOUND( '', #205, .T. );
#141 = TOROIDAL_SURFACE( '', #206, 12.4958861887828, 2.00000000000000 );
#142 = PRODUCT_CONTEXT( '', #25, 'mechanical' );
#143 = PRODUCT_DEFINITION_FORMATION_WITH_SPECIFIED_SOURCE( ' ', 'NONE', #68, .NOT_KNOWN. );
#144 = CLOSED_SHELL( '', ( #59, #67, #63, #49, #43, #53, #57, #61, #39, #55 ) );
#145 = ORIENTED_CLOSED_SHELL( '', *, #207, .T. );
#146 = CARTESIAN_POINT( '', ( 0.000000000000000, 0.000000000000000, 0.000000000000000 ) );
#147 = DIRECTION( '', ( 0.000000000000000, 0.000000000000000, 1.00000000000000 ) );
#148 = DIRECTION( '', ( 1.00000000000000, 0.000000000000000, 0.000000000000000 ) );
#149 =  ( LENGTH_UNIT(  )NAMED_UNIT( #77 )SI_UNIT( .MILLI., .METRE. ) );
#150 = SURFACE_SIDE_STYLE( '', ( #209 ) );
#151 = EDGE_LOOP( '', ( #210 ) );
#152 = AXIS2_PLACEMENT_3D( '', #211, #212, #213 );
#153 = SURFACE_SIDE_STYLE( '', ( #214 ) );
#154 = EDGE_LOOP( '', ( #215 ) );
#155 = EDGE_LOOP( '', ( #216 ) );
#156 = AXIS2_PLACEMENT_3D( '', #217, #218, #219 );
#157 = SURFACE_SIDE_STYLE( '', ( #220 ) );
#158 = EDGE_LOOP( '', ( #221 ) );
#159 = EDGE_LOOP( '', ( #222 ) );
#160 = AXIS2_PLACEMENT_3D( '', #223, #224, #225 );
#161 = SURFACE_SIDE_STYLE( '', ( #226 ) );
#162 = EDGE_LOOP( '', ( #227 ) );
#163 = VERTEX_LOOP( '', #228 );
#164 = AXIS2_PLACEMENT_3D( '', #229, #230, #231 );
#165 = SURFACE_SIDE_STYLE( '', ( #232 ) );
#166 = EDGE_LOOP( '', ( #233 ) );
#167 = EDGE_LOOP( '', ( #234 ) );
#168 = AXIS2_PLACEMENT_3D( '', #235, #236, #237 );
#169 = SURFACE_SIDE_STYLE( '', ( #238 ) );
#170 = EDGE_LOOP( '', ( #239 ) );
#171 = EDGE_LOOP( '', ( #240 ) );
#172 = AXIS2_PLACEMENT_3D( '', #241, #242, #243 );
#173 = SURFACE_SIDE_STYLE( '', ( #244 ) );
#174 = EDGE_LOOP( '', ( #245 ) );
#175 = AXIS2_PLACEMENT_3D( '', #246, #247, #248 );
#176 = SURFACE_SIDE_STYLE( '', ( #249 ) );
#177 = EDGE_LOOP( '', ( #250 ) );
#178 = EDGE_LOOP( '', ( #251 ) );
#179 = AXIS2_PLACEMENT_3D( '', #252, #253, #254 );
#180 = SURFACE_SIDE_STYLE( '', ( #255 ) );
#181 = EDGE_LOOP( '', ( #256 ) );
#182 = EDGE_LOOP( '', ( #257 ) );
#183 = AXIS2_PLACEMENT_3D( '', #258, #259, #260 );
#184 = SURFACE_SIDE_STYLE( '', ( #261 ) );
#185 = EDGE_LOOP( '', ( #262 ) );
#186 = EDGE_LOOP( '', ( #263 ) );
#187 = AXIS2_PLACEMENT_3D( '', #264, #265, #266 );
#188 = SURFACE_SIDE_STYLE( '', ( #267 ) );
#189 = EDGE_LOOP( '', ( #268 ) );
#190 = EDGE_LOOP( '', ( #269 ) );
#191 = AXIS2_PLACEMENT_3D( '', #270, #271, #272 );
#192 = SURFACE_SIDE_STYLE( '', ( #273 ) );
#193 = EDGE_LOOP( '', ( #274 ) );
#194 = EDGE_LOOP( '', ( #275 ) );
#195 = AXIS2_PLACEMENT_3D( '', #276, #277, #278 );
#196 = SURFACE_SIDE_STYLE( '', ( #279 ) );
#197 = EDGE_LOOP( '', ( #280 ) );
#198 = AXIS2_PLACEMENT_3D( '', #281, #282, #283 );
#199 = SURFACE_SIDE_STYLE( '', ( #284 ) );
#200 = EDGE_LOOP( '', ( #285 ) );
#201 = EDGE_LOOP( '', ( #286 ) );
#202 = AXIS2_PLACEMENT_3D( '', #287, #288, #289 );
#203 = SURFACE_SIDE_STYLE( '', ( #290 ) );
#204 = EDGE_LOOP( '', ( #291 ) );
#205 = EDGE_LOOP( '', ( #292 ) );
#206 = AXIS2_PLACEMENT_3D( '', #293, #294, #295 );
#207 = CLOSED_SHELL( '', ( #45, #65, #41, #47, #51 ) );
#209 = SURFACE_STYLE_FILL_AREA( #296 );
#210 = ORIENTED_EDGE( '', *, *, #297, .T. );
#211 = CARTESIAN_POINT( '', ( 2.66388473779688E-015, -8.32667268468865E-016, -72.5000000000000 ) );
#212 = DIRECTION( '', ( -5.55111512312578E-017, -5.55111512312578E-017, -1.00000000000000 ) );
#213 = DIRECTION( '', ( 1.23259516440783E-032, -1.00000000000000, 5.55111512312578E-017 ) );
#214 = SURFACE_STYLE_FILL_AREA( #298 );
#215 = ORIENTED_EDGE( '', *, *, #299, .T. );
#216 = ORIENTED_EDGE( '', *, *, #300, .F. );
#217 = CARTESIAN_POINT( '', ( 3.49655200626575E-015, 0.000000000000000, -57.5000000000000 ) );
#218 = DIRECTION( '', ( -0.000000000000000, 0.000000000000000, -1.00000000000000 ) );
#219 = DIRECTION( '', ( 0.000000000000000, 1.00000000000000, 0.000000000000000 ) );
#220 = SURFACE_STYLE_FILL_AREA( #301 );
#221 = ORIENTED_EDGE( '', *, *, #302, .T. );
#222 = ORIENTED_EDGE( '', *, *, #303, .T. );
#223 = CARTESIAN_POINT( '', ( 1.23775379339770E-014, 0.000000000000000, -15.5000000000000 ) );
#224 = DIRECTION( '', ( -0.000000000000000, -0.000000000000000, 1.00000000000000 ) );
#225 = DIRECTION( '', ( 1.00000000000000, 0.000000000000000, 0.000000000000000 ) );
#226 = SURFACE_STYLE_FILL_AREA( #304 );
#227 = ORIENTED_EDGE( '', *, *, #305, .F. );
#228 = VERTEX_POINT( '', #306 );
#229 = CARTESIAN_POINT( '', ( 3.49655200626575E-015, 0.000000000000000, -7.50000000000000 ) );
#230 = DIRECTION( '', ( 0.000000000000000, -0.000000000000000, -1.00000000000000 ) );
#231 = DIRECTION( '', ( 0.000000000000000, -1.00000000000000, 0.000000000000000 ) );
#232 = SURFACE_STYLE_FILL_AREA( #307 );
#233 = ORIENTED_EDGE( '', *, *, #308, .F. );
#234 = ORIENTED_EDGE( '', *, *, #299, .F. );
#235 = CARTESIAN_POINT( '', ( 4.82881963581594E-015, 1.33226762955019E-015, -33.5000000000000 ) );
#236 = DIRECTION( '', ( -5.55111512312578E-017, -5.55111512312578E-017, -1.00000000000000 ) );
#237 = DIRECTION( '', ( 1.23259516440783E-032, -1.00000000000000, 5.55111512312578E-017 ) );
#238 = SURFACE_STYLE_FILL_AREA( #309 );
#239 = ORIENTED_EDGE( '', *, *, #310, .F. );
#240 = ORIENTED_EDGE( '', *, *, #311, .F. );
#241 = CARTESIAN_POINT( '', ( 1.23775379339770E-014, 0.000000000000000, -56.5000000000000 ) );
#242 = DIRECTION( '', ( 0.000000000000000, 0.000000000000000, 1.00000000000000 ) );
#243 = DIRECTION( '', ( 1.00000000000000, 0.000000000000000, 0.000000000000000 ) );
#244 = SURFACE_STYLE_FILL_AREA( #312 );
#245 = ORIENTED_EDGE( '', *, *, #308, .T. );
#246 = CARTESIAN_POINT( '', ( 4.88433078704720E-015, 1.38777878078145E-015, -32.5000000000000 ) );
#247 = DIRECTION( '', ( -5.55111512312578E-017, -5.55111512312578E-017, -1.00000000000000 ) );
#248 = DIRECTION( '', ( 1.23259516440783E-032, -1.00000000000000, 5.55111512312578E-017 ) );
#249 = SURFACE_STYLE_FILL_AREA( #313 );
#250 = ORIENTED_EDGE( '', *, *, #311, .T. );
#251 = ORIENTED_EDGE( '', *, *, #303, .F. );
#252 = CARTESIAN_POINT( '', ( 1.23775379339770E-014, 0.000000000000000, -57.5000000000000 ) );
#253 = DIRECTION( '', ( -0.000000000000000, -0.000000000000000, 1.00000000000000 ) );
#254 = DIRECTION( '', ( 1.00000000000000, 0.000000000000000, 0.000000000000000 ) );
#255 = SURFACE_STYLE_FILL_AREA( #314 );
#256 = ORIENTED_EDGE( '', *, *, #315, .T. );
#257 = ORIENTED_EDGE( '', *, *, #316, .T. );
#258 = CARTESIAN_POINT( '', ( 4.88433078704720E-015, 1.38777878078145E-015, -32.5000000000000 ) );
#259 = DIRECTION( '', ( 5.55111512312578E-017, 5.55111512312578E-017, 1.00000000000000 ) );
#260 = DIRECTION( '', ( 1.23259516440783E-032, -1.00000000000000, 5.55111512312578E-017 ) );
#261 = SURFACE_STYLE_FILL_AREA( #317 );
#262 = ORIENTED_EDGE( '', *, *, #315, .F. );
#263 = ORIENTED_EDGE( '', *, *, #318, .F. );
#264 = CARTESIAN_POINT( '', ( 3.49655200626575E-015, 0.000000000000000, -56.0000000000000 ) );
#265 = DIRECTION( '', ( 0.000000000000000, 0.000000000000000, 1.00000000000000 ) );
#266 = DIRECTION( '', ( 1.00000000000000, 0.000000000000000, 0.000000000000000 ) );
#267 = SURFACE_STYLE_FILL_AREA( #319 );
#268 = ORIENTED_EDGE( '', *, *, #318, .T. );
#269 = ORIENTED_EDGE( '', *, *, #310, .T. );
#270 = CARTESIAN_POINT( '', ( 1.23775379339770E-014, 0.000000000000000, -57.5000000000000 ) );
#271 = DIRECTION( '', ( 0.000000000000000, 0.000000000000000, 1.00000000000000 ) );
#272 = DIRECTION( '', ( 1.00000000000000, 0.000000000000000, 0.000000000000000 ) );
#273 = SURFACE_STYLE_FILL_AREA( #320 );
#274 = ORIENTED_EDGE( '', *, *, #316, .F. );
#275 = ORIENTED_EDGE( '', *, *, #297, .F. );
#276 = CARTESIAN_POINT( '', ( 2.66388473779688E-015, -8.32667268468865E-016, -72.5000000000000 ) );
#277 = DIRECTION( '', ( 5.55111512312578E-017, 5.55111512312578E-017, 1.00000000000000 ) );
#278 = DIRECTION( '', ( -1.23259516440783E-032, 1.00000000000000, -5.55111512312578E-017 ) );
#279 = SURFACE_STYLE_FILL_AREA( #321 );
#280 = ORIENTED_EDGE( '', *, *, #322, .T. );
#281 = CARTESIAN_POINT( '', ( 14.5000000000000, 0.000000000000000, 57.5000000000000 ) );
#282 = DIRECTION( '', ( 0.000000000000000, 0.000000000000000, -1.00000000000000 ) );
#283 = DIRECTION( '', ( -1.00000000000000, 0.000000000000000, 0.000000000000000 ) );
#284 = SURFACE_STYLE_FILL_AREA( #323 );
#285 = ORIENTED_EDGE( '', *, *, #305, .T. );
#286 = ORIENTED_EDGE( '', *, *, #300, .T. );
#287 = CARTESIAN_POINT( '', ( 3.49655200626575E-015, 0.000000000000000, -57.5000000000000 ) );
#288 = DIRECTION( '', ( -0.000000000000000, 0.000000000000000, -1.00000000000000 ) );
#289 = DIRECTION( '', ( 0.000000000000000, 1.00000000000000, 0.000000000000000 ) );
#290 = SURFACE_STYLE_FILL_AREA( #324 );
#291 = ORIENTED_EDGE( '', *, *, #302, .F. );
#292 = ORIENTED_EDGE( '', *, *, #322, .F. );
#293 = CARTESIAN_POINT( '', ( 1.23775379339770E-014, 0.000000000000000, 55.5000000000000 ) );
#294 = DIRECTION( '', ( 0.000000000000000, 0.000000000000000, -1.00000000000000 ) );
#295 = DIRECTION( '', ( -1.00000000000000, 0.000000000000000, 0.000000000000000 ) );
#296 = FILL_AREA_STYLE( '', ( #325 ) );
#297 = EDGE_CURVE( '', #326, #326, #327, .T. );
#298 = FILL_AREA_STYLE( '', ( #328 ) );
#299 = EDGE_CURVE( '', #329, #329, #330, .T. );
#300 = EDGE_CURVE( '', #331, #331, #332, .T. );
#301 = FILL_AREA_STYLE( '', ( #333 ) );
#302 = EDGE_CURVE( '', #334, #334, #335, .T. );
#303 = EDGE_CURVE( '', #336, #336, #337, .T. );
#304 = FILL_AREA_STYLE( '', ( #338 ) );
#305 = EDGE_CURVE( '', #339, #339, #340, .T. );
#306 = CARTESIAN_POINT( '', ( 3.49655200626575E-015, 0.000000000000000, -5.50303973266190 ) );
#307 = FILL_AREA_STYLE( '', ( #341 ) );
#308 = EDGE_CURVE( '', #342, #342, #343, .F. );
#309 = FILL_AREA_STYLE( '', ( #344 ) );
#310 = EDGE_CURVE( '', #345, #345, #346, .F. );
#311 = EDGE_CURVE( '', #347, #347, #348, .F. );
#312 = FILL_AREA_STYLE( '', ( #349 ) );
#313 = FILL_AREA_STYLE( '', ( #350 ) );
#314 = FILL_AREA_STYLE( '', ( #351 ) );
#315 = EDGE_CURVE( '', #352, #352, #353, .F. );
#316 = EDGE_CURVE( '', #354, #354, #355, .F. );
#317 = FILL_AREA_STYLE( '', ( #356 ) );
#318 = EDGE_CURVE( '', #357, #357, #358, .T. );
#319 = FILL_AREA_STYLE( '', ( #359 ) );
#320 = FILL_AREA_STYLE( '', ( #360 ) );
#321 = FILL_AREA_STYLE( '', ( #361 ) );
#322 = EDGE_CURVE( '', #362, #362, #363, .F. );
#323 = FILL_AREA_STYLE( '', ( #364 ) );
#324 = FILL_AREA_STYLE( '', ( #365 ) );
#325 = FILL_AREA_STYLE_COLOUR( '', #366 );
#326 = VERTEX_POINT( '', #367 );
#327 = CIRCLE( '', #368, 3.00000000000000 );
#328 = FILL_AREA_STYLE_COLOUR( '', #369 );
#329 = VERTEX_POINT( '', #370 );
#330 = CIRCLE( '', #371, 3.32350000000000 );
#331 = VERTEX_POINT( '', #372 );
#332 = CIRCLE( '', #373, 3.32350000000000 );
#333 = FILL_AREA_STYLE_COLOUR( '', #374 );
#334 = VERTEX_POINT( '', #375 );
#335 = CIRCLE( '', #376, 14.4958819666157 );
#336 = VERTEX_POINT( '', #377 );
#337 = CIRCLE( '', #378, 14.3500000000000 );
#338 = FILL_AREA_STYLE_COLOUR( '', #379 );
#339 = VERTEX_POINT( '', #380 );
#340 = CIRCLE( '', #381, 3.32350000000000 );
#341 = FILL_AREA_STYLE_COLOUR( '', #382 );
#342 = VERTEX_POINT( '', #383 );
#343 = CIRCLE( '', #384, 3.00000000000000 );
#344 = FILL_AREA_STYLE_COLOUR( '', #385 );
#345 = VERTEX_POINT( '', #386 );
#346 = CIRCLE( '', #387, 10.3210893007139 );
#347 = VERTEX_POINT( '', #388 );
#348 = CIRCLE( '', #389, 11.3183764571579 );
#349 = FILL_AREA_STYLE_COLOUR( '', #390 );
#350 = FILL_AREA_STYLE_COLOUR( '', #391 );
#351 = FILL_AREA_STYLE_COLOUR( '', #392 );
#352 = VERTEX_POINT( '', #393 );
#353 = CIRCLE( '', #394, 4.00000000000000 );
#354 = VERTEX_POINT( '', #395 );
#355 = CIRCLE( '', #396, 4.00000000000000 );
#356 = FILL_AREA_STYLE_COLOUR( '', #397 );
#357 = VERTEX_POINT( '', #398 );
#358 = CIRCLE( '', #399, 4.82350000000000 );
#359 = FILL_AREA_STYLE_COLOUR( '', #400 );
#360 = FILL_AREA_STYLE_COLOUR( '', #401 );
#361 = FILL_AREA_STYLE_COLOUR( '', #402 );
#362 = VERTEX_POINT( '', #403 );
#363 = CIRCLE( '', #404, 12.4958861887828 );
#364 = FILL_AREA_STYLE_COLOUR( '', #405 );
#365 = FILL_AREA_STYLE_COLOUR( '', #406 );
#366 = COLOUR_RGB( '', 0.666666686534882, 0.733333349227905, 0.866666674613953 );
#367 = CARTESIAN_POINT( '', ( 2.66388473779688E-015, -3.00000000000000, -72.5000000000000 ) );
#368 = AXIS2_PLACEMENT_3D( '', #407, #408, #409 );
#369 = COLOUR_RGB( '', 0.752941191196442, 0.752941191196442, 0.752941191196442 );
#370 = CARTESIAN_POINT( '', ( -3.32350000000000, 1.36982092335813E-015, -32.8235000000000 ) );
#371 = AXIS2_PLACEMENT_3D( '', #410, #411, #412 );
#372 = CARTESIAN_POINT( '', ( 3.49655200626575E-015, 3.32350000000000, -17.5000000000000 ) );
#373 = AXIS2_PLACEMENT_3D( '', #413, #414, #415 );
#374 = COLOUR_RGB( '', 0.200000002980232, 0.200000002980232, 0.200000002980232 );
#375 = CARTESIAN_POINT( '', ( -14.4958819666157, 0.000000000000000, 55.4958904196345 ) );
#376 = AXIS2_PLACEMENT_3D( '', #416, #417, #418 );
#377 = CARTESIAN_POINT( '', ( 14.3500000000000, 0.000000000000000, -15.5000000000000 ) );
#378 = AXIS2_PLACEMENT_3D( '', #419, #420, #421 );
#379 = COLOUR_RGB( '', 0.200000002980232, 0.200000002980232, 0.200000002980232 );
#380 = CARTESIAN_POINT( '', ( 3.49655200626575E-015, -3.32350000000000, -7.50000000000000 ) );
#381 = AXIS2_PLACEMENT_3D( '', #422, #423, #424 );
#382 = COLOUR_RGB( '', 0.666666686534882, 0.733333349227905, 0.866666674613953 );
#383 = CARTESIAN_POINT( '', ( 4.88433078704720E-015, -3.00000000000000, -32.5000000000000 ) );
#384 = AXIS2_PLACEMENT_3D( '', #425, #426, #427 );
#385 = COLOUR_RGB( '', 0.200000002980232, 0.200000002980232, 0.200000002980232 );
#386 = CARTESIAN_POINT( '', ( 10.3210893007139, 0.000000000000000, -57.5000000000000 ) );
#387 = AXIS2_PLACEMENT_3D( '', #428, #429, #430 );
#388 = CARTESIAN_POINT( '', ( -11.3183764571579, 0.000000000000000, -56.5736092901185 ) );
#389 = AXIS2_PLACEMENT_3D( '', #431, #432, #433 );
#390 = COLOUR_RGB( '', 0.666666686534882, 0.733333349227905, 0.866666674613953 );
#391 = COLOUR_RGB( '', 0.200000002980232, 0.200000002980232, 0.200000002980232 );
#392 = COLOUR_RGB( '', 0.752941191196442, 0.752941191196442, 0.752941191196442 );
#393 = CARTESIAN_POINT( '', ( 4.00000000000000, 0.000000000000000, -57.2537335243185 ) );
#394 = AXIS2_PLACEMENT_3D( '', #434, #435, #436 );
#395 = CARTESIAN_POINT( '', ( 2.71939588902814E-015, -4.00000000000000, -71.5000000000000 ) );
#396 = AXIS2_PLACEMENT_3D( '', #437, #438, #439 );
#397 = COLOUR_RGB( '', 0.200000002980232, 0.200000002980232, 0.200000002980232 );
#398 = CARTESIAN_POINT( '', ( 4.82350000000000, 0.000000000000000, -57.5000000000000 ) );
#399 = AXIS2_PLACEMENT_3D( '', #440, #441, #442 );
#400 = COLOUR_RGB( '', 0.200000002980232, 0.200000002980232, 0.200000002980232 );
#401 = COLOUR_RGB( '', 0.666666686534882, 0.733333349227905, 0.866666674613953 );
#402 = COLOUR_RGB( '', 0.200000002980232, 0.200000002980232, 0.200000002980232 );
#403 = CARTESIAN_POINT( '', ( -12.4958861887828, 0.000000000000000, 57.5000000000000 ) );
#404 = AXIS2_PLACEMENT_3D( '', #443, #444, #445 );
#405 = COLOUR_RGB( '', 0.200000002980232, 0.200000002980232, 0.200000002980232 );
#406 = COLOUR_RGB( '', 0.200000002980232, 0.200000002980232, 0.200000002980232 );
#407 = CARTESIAN_POINT( '', ( 2.66388473779688E-015, -8.32667268468865E-016, -72.5000000000000 ) );
#408 = DIRECTION( '', ( -5.55111512312578E-017, -5.55111512312578E-017, -1.00000000000000 ) );
#409 = DIRECTION( '', ( 1.23259516440783E-032, -1.00000000000000, 5.55111512312578E-017 ) );
#410 = CARTESIAN_POINT( '', ( 4.86637292962389E-015, 1.36982092335813E-015, -32.8235000000000 ) );
#411 = DIRECTION( '', ( -5.55111512312578E-017, -5.55111512312578E-017, -1.00000000000000 ) );
#412 = DIRECTION( '', ( -1.00000000000000, 0.000000000000000, 5.55111512312578E-017 ) );
#413 = CARTESIAN_POINT( '', ( 3.49655200626575E-015, 0.000000000000000, -17.5000000000000 ) );
#414 = DIRECTION( '', ( 0.000000000000000, 0.000000000000000, -1.00000000000000 ) );
#415 = DIRECTION( '', ( 0.000000000000000, 1.00000000000000, 0.000000000000000 ) );
#416 = CARTESIAN_POINT( '', ( 1.23775379339770E-014, 0.000000000000000, 55.4958904196345 ) );
#417 = DIRECTION( '', ( 0.000000000000000, 0.000000000000000, -1.00000000000000 ) );
#418 = DIRECTION( '', ( -1.00000000000000, 0.000000000000000, 0.000000000000000 ) );
#419 = CARTESIAN_POINT( '', ( 1.23775379339770E-014, 0.000000000000000, -15.5000000000000 ) );
#420 = DIRECTION( '', ( 0.000000000000000, 0.000000000000000, 1.00000000000000 ) );
#421 = DIRECTION( '', ( 1.00000000000000, 0.000000000000000, 0.000000000000000 ) );
#422 = CARTESIAN_POINT( '', ( 3.49655200626575E-015, 0.000000000000000, -7.50000000000000 ) );
#423 = DIRECTION( '', ( 0.000000000000000, 0.000000000000000, 1.00000000000000 ) );
#424 = DIRECTION( '', ( 0.000000000000000, -1.00000000000000, 0.000000000000000 ) );
#425 = CARTESIAN_POINT( '', ( 4.88433078704720E-015, 1.38777878078145E-015, -32.5000000000000 ) );
#426 = DIRECTION( '', ( -5.55111512312578E-017, -5.55111512312578E-017, -1.00000000000000 ) );
#427 = DIRECTION( '', ( 1.23259516440783E-032, -1.00000000000000, 5.55111512312578E-017 ) );
#428 = CARTESIAN_POINT( '', ( 1.23775379339770E-014, 0.000000000000000, -57.5000000000000 ) );
#429 = DIRECTION( '', ( 0.000000000000000, 0.000000000000000, 1.00000000000000 ) );
#430 = DIRECTION( '', ( 1.00000000000000, 0.000000000000000, 0.000000000000000 ) );
#431 = CARTESIAN_POINT( '', ( 1.23775379339770E-014, 0.000000000000000, -56.5736092901185 ) );
#432 = DIRECTION( '', ( 0.000000000000000, 0.000000000000000, -1.00000000000000 ) );
#433 = DIRECTION( '', ( -1.00000000000000, 0.000000000000000, 0.000000000000000 ) );
#434 = CARTESIAN_POINT( '', ( 3.49655200626575E-015, 0.000000000000000, -57.2537335243185 ) );
#435 = DIRECTION( '', ( 0.000000000000000, 0.000000000000000, 1.00000000000000 ) );
#436 = DIRECTION( '', ( 1.00000000000000, 0.000000000000000, 0.000000000000000 ) );
#437 = CARTESIAN_POINT( '', ( 2.71939588902814E-015, -7.77156117237608E-016, -71.5000000000000 ) );
#438 = DIRECTION( '', ( -5.55111512312578E-017, -5.55111512312578E-017, -1.00000000000000 ) );
#439 = DIRECTION( '', ( 1.23259516440783E-032, -1.00000000000000, 5.55111512312578E-017 ) );
#440 = CARTESIAN_POINT( '', ( 3.49655200626575E-015, 0.000000000000000, -57.5000000000000 ) );
#441 = DIRECTION( '', ( 0.000000000000000, 0.000000000000000, 1.00000000000000 ) );
#442 = DIRECTION( '', ( 1.00000000000000, 0.000000000000000, 0.000000000000000 ) );
#443 = CARTESIAN_POINT( '', ( 1.23775379339770E-014, 0.000000000000000, 57.5000000000000 ) );
#444 = DIRECTION( '', ( 0.000000000000000, 0.000000000000000, -1.00000000000000 ) );
#445 = DIRECTION( '', ( -1.00000000000000, 0.000000000000000, 0.000000000000000 ) );
ENDSEC;
END-ISO-10303-21;
