ISO-10303-21;
HEADER;
FILE_DESCRIPTION( ( 'Unknown' ), '1' );
FILE_NAME( 'C:/SOLIDEDGE/STEP - catalogo CD/03 - MANOPOLE/MC - Duroplasto/6140002_MC22x40.stp', 'Unknown', ( 'Unknown' ), ( 'Unknown' ), 'XStep 1.0', 'Unknown', ' ' );
FILE_SCHEMA( ( 'CONFIG_CONTROL_DESIGN' ) );
ENDSEC;
DATA;
#1 = DESIGN_CONTEXT( '', #27, 'design' );
#2 = APPLICATION_PROTOCOL_DEFINITION( 'INTERNATIONAL STANDARD', 'config_control_design', 1994, #27 );
#3 = PRODUCT_CATEGORY_RELATIONSHIP( 'NONE', 'NONE', #28, #29 );
#4 = DATE_AND_TIME( #30, #31 );
#5 = DATE_TIME_ROLE( 'creation_date' );
#6 = DATE_TIME_ROLE( 'classification_date' );
#7 = PERSON_AND_ORGANIZATION_ROLE( 'creator' );
#8 = PERSON_AND_ORGANIZATION_ROLE( 'design_supplier' );
#9 = PERSON_AND_ORGANIZATION_ROLE( 'classification_officer' );
#10 = PERSON_AND_ORGANIZATION_ROLE( 'design_owner' );
#11 = APPROVAL_PERSON_ORGANIZATION( #32, #33, #34 );
#12 = APPROVAL_DATE_TIME( #4, #33 );
#13 = CC_DESIGN_APPROVAL( #33, ( #35, #36, #37 ) );
#14 = CC_DESIGN_DATE_AND_TIME_ASSIGNMENT( #4, #5, ( #37 ) );
#15 = CC_DESIGN_DATE_AND_TIME_ASSIGNMENT( #4, #6, ( #35 ) );
#16 = CC_DESIGN_PERSON_AND_ORGANIZATION_ASSIGNMENT( #32, #10, ( #38 ) );
#17 = CC_DESIGN_PERSON_AND_ORGANIZATION_ASSIGNMENT( #32, #7, ( #37 ) );
#18 = CC_DESIGN_PERSON_AND_ORGANIZATION_ASSIGNMENT( #32, #7, ( #36 ) );
#19 = CC_DESIGN_PERSON_AND_ORGANIZATION_ASSIGNMENT( #32, #8, ( #36 ) );
#20 = CC_DESIGN_SECURITY_CLASSIFICATION( #35, ( #36 ) );
#21 = CC_DESIGN_PERSON_AND_ORGANIZATION_ASSIGNMENT( #32, #9, ( #35 ) );
#22 = SHAPE_DEFINITION_REPRESENTATION( #39, #40 );
#23 =  ( GEOMETRIC_REPRESENTATION_CONTEXT( 3 )GLOBAL_UNCERTAINTY_ASSIGNED_CONTEXT( ( #43 ) )GLOBAL_UNIT_ASSIGNED_CONTEXT( ( #45, #46, #47 ) )REPRESENTATION_CONTEXT( 'NONE', 'WORKSPACE' ) );
#27 = APPLICATION_CONTEXT( 'CONFIGURATION CONTROLLED 3D DESIGNS OF MECHANICAL PARTS AND ASSEMBLIES' );
#28 = PRODUCT_CATEGORY( 'part', 'NONE' );
#29 = PRODUCT_RELATED_PRODUCT_CATEGORY( 'detail', ' ', ( #38 ) );
#30 = CALENDAR_DATE( 2005, 6, 4 );
#31 = LOCAL_TIME( 13, 56, 41.0000000000000, #49 );
#32 = PERSON_AND_ORGANIZATION( #50, #51 );
#33 = APPROVAL( #52, 'SOLID MODEL' );
#34 = APPROVAL_ROLE( 'APPROVED' );
#35 = SECURITY_CLASSIFICATION( '', '', #53 );
#36 = PRODUCT_DEFINITION_FORMATION_WITH_SPECIFIED_SOURCE( ' ', 'NONE', #38, .NOT_KNOWN. );
#37 = PRODUCT_DEFINITION( 'NONE', 'NONE', #36, #1 );
#38 = PRODUCT( '1', '1', 'PART-1-DESC', ( #54 ) );
#39 = PRODUCT_DEFINITION_SHAPE( 'NONE', 'NONE', #37 );
#40 = ADVANCED_BREP_SHAPE_REPRESENTATION( '1', ( #55, #56 ), #23 );
#43 = UNCERTAINTY_MEASURE_WITH_UNIT( LENGTH_MEASURE( 0.00100000000000000 ), #45, '', '' );
#45 =  ( CONVERSION_BASED_UNIT( 'MILLIMETRE', #59 )LENGTH_UNIT(  )NAMED_UNIT( #62 ) );
#46 =  ( NAMED_UNIT( #64 )PLANE_ANGLE_UNIT(  )SI_UNIT( $, .RADIAN. ) );
#47 =  ( NAMED_UNIT( #64 )SOLID_ANGLE_UNIT(  )SI_UNIT( $, .STERADIAN. ) );
#49 = COORDINATED_UNIVERSAL_TIME_OFFSET( 1, 0, .AHEAD. );
#50 = PERSON( '', 'UNSPECIFIED', $, $, $, $ );
#51 = ORGANIZATION( 'UNSPECIFIED', 'UNSPECIFIED', 'UNSPECIFIED' );
#52 = APPROVAL_STATUS( 'approved' );
#53 = SECURITY_CLASSIFICATION_LEVEL( 'unclassified' );
#54 = MECHANICAL_CONTEXT( '', #27, 'mechanical' );
#55 = MANIFOLD_SOLID_BREP( '1', #70 );
#56 = AXIS2_PLACEMENT_3D( '', #71, #72, #73 );
#59 = LENGTH_MEASURE_WITH_UNIT( LENGTH_MEASURE( 1.00000000000000 ), #74 );
#62 = DIMENSIONAL_EXPONENTS( 1.00000000000000, 0.000000000000000, 0.000000000000000, 0.000000000000000, 0.000000000000000, 0.000000000000000, 0.000000000000000 );
#64 = DIMENSIONAL_EXPONENTS( 0.000000000000000, 0.000000000000000, 0.000000000000000, 0.000000000000000, 0.000000000000000, 0.000000000000000, 0.000000000000000 );
#70 = CLOSED_SHELL( '', ( #75, #76, #77, #78, #79, #80, #81, #82 ) );
#71 = CARTESIAN_POINT( '', ( 0.000000000000000, 0.000000000000000, 0.000000000000000 ) );
#72 = DIRECTION( '', ( 0.000000000000000, 0.000000000000000, 1.00000000000000 ) );
#73 = DIRECTION( '', ( 1.00000000000000, 0.000000000000000, 0.000000000000000 ) );
#74 =  ( NAMED_UNIT( #62 )LENGTH_UNIT(  )SI_UNIT( .MILLI., .METRE. ) );
#75 = ADVANCED_FACE( '', ( #84, #85 ), #86, .T. );
#76 = ADVANCED_FACE( '', ( #87, #88 ), #89, .F. );
#77 = ADVANCED_FACE( '', ( #90, #91 ), #92, .F. );
#78 = ADVANCED_FACE( '', ( #93, #94 ), #95, .F. );
#79 = ADVANCED_FACE( '', ( #96, #97 ), #98, .F. );
#80 = ADVANCED_FACE( '', ( #99, #100 ), #101, .T. );
#81 = ADVANCED_FACE( '', ( #102, #103 ), #104, .F. );
#82 = ADVANCED_FACE( '', ( #105 ), #106, .T. );
#84 = FACE_OUTER_BOUND( '', #107, .T. );
#85 = FACE_OUTER_BOUND( '', #108, .T. );
#86 = TOROIDAL_SURFACE( '', #109, 7.54912138127511, 0.500000000000000 );
#87 = FACE_OUTER_BOUND( '', #110, .T. );
#88 = FACE_BOUND( '', #111, .T. );
#89 = CONICAL_SURFACE( '', #112, 2.50000000000000, 1.39626340159546 );
#90 = FACE_BOUND( '', #113, .T. );
#91 = FACE_OUTER_BOUND( '', #114, .T. );
#92 = CONICAL_SURFACE( '', #115, 3.00000000000000, 0.785398163397448 );
#93 = FACE_OUTER_BOUND( '', #116, .T. );
#94 = FACE_OUTER_BOUND( '', #117, .T. );
#95 = CYLINDRICAL_SURFACE( '', #118, 2.50000000000000 );
#96 = FACE_BOUND( '', #119, .T. );
#97 = FACE_OUTER_BOUND( '', #120, .T. );
#98 = PLANE( '', #121 );
#99 = FACE_OUTER_BOUND( '', #122, .T. );
#100 = FACE_BOUND( '', #123, .T. );
#101 = CONICAL_SURFACE( '', #124, 8.04645983793606, 0.103226120097149 );
#102 = FACE_OUTER_BOUND( '', #125, .T. );
#103 = FACE_OUTER_BOUND( '', #126, .T. );
#104 = TOROIDAL_SURFACE( '', #127, 10.9999211526918, 0.587685933211269 );
#105 = FACE_OUTER_BOUND( '', #128, .T. );
#106 = SPHERICAL_SURFACE( '', #129, 11.0000000000000 );
#107 = EDGE_LOOP( '', ( #130 ) );
#108 = EDGE_LOOP( '', ( #131 ) );
#109 = AXIS2_PLACEMENT_3D( '', #132, #133, #134 );
#110 = EDGE_LOOP( '', ( #135 ) );
#111 = VERTEX_LOOP( '', #136 );
#112 = AXIS2_PLACEMENT_3D( '', #137, #138, #139 );
#113 = EDGE_LOOP( '', ( #140 ) );
#114 = EDGE_LOOP( '', ( #141 ) );
#115 = AXIS2_PLACEMENT_3D( '', #142, #143, #144 );
#116 = EDGE_LOOP( '', ( #145 ) );
#117 = EDGE_LOOP( '', ( #146 ) );
#118 = AXIS2_PLACEMENT_3D( '', #147, #148, #149 );
#119 = EDGE_LOOP( '', ( #150 ) );
#120 = EDGE_LOOP( '', ( #151 ) );
#121 = AXIS2_PLACEMENT_3D( '', #152, #153, #154 );
#122 = EDGE_LOOP( '', ( #155 ) );
#123 = EDGE_LOOP( '', ( #156 ) );
#124 = AXIS2_PLACEMENT_3D( '', #157, #158, #159 );
#125 = EDGE_LOOP( '', ( #160 ) );
#126 = EDGE_LOOP( '', ( #161 ) );
#127 = AXIS2_PLACEMENT_3D( '', #162, #163, #164 );
#128 = EDGE_LOOP( '', ( #165 ) );
#129 = AXIS2_PLACEMENT_3D( '', #166, #167, #168 );
#130 = ORIENTED_EDGE( '', *, *, #169, .F. );
#131 = ORIENTED_EDGE( '', *, *, #170, .T. );
#132 = CARTESIAN_POINT( '', ( 0.000000000000000, 0.000000000000000, 0.500000000000007 ) );
#133 = DIRECTION( '', ( 0.000000000000000, 0.000000000000000, 1.00000000000000 ) );
#134 = DIRECTION( '', ( 1.00000000000000, 0.000000000000000, 0.000000000000000 ) );
#135 = ORIENTED_EDGE( '', *, *, #171, .F. );
#136 = VERTEX_POINT( '', #172 );
#137 = CARTESIAN_POINT( '', ( 0.000000000000000, 0.000000000000000, 25.0000000000000 ) );
#138 = DIRECTION( '', ( 0.000000000000000, 0.000000000000000, -1.00000000000000 ) );
#139 = DIRECTION( '', ( 0.000000000000000, -1.00000000000000, 0.000000000000000 ) );
#140 = ORIENTED_EDGE( '', *, *, #173, .F. );
#141 = ORIENTED_EDGE( '', *, *, #174, .F. );
#142 = CARTESIAN_POINT( '', ( 0.000000000000000, 0.000000000000000, 1.25776544028220E-014 ) );
#143 = DIRECTION( '', ( 0.000000000000000, 0.000000000000000, -1.00000000000000 ) );
#144 = DIRECTION( '', ( -1.00000000000000, 0.000000000000000, 0.000000000000000 ) );
#145 = ORIENTED_EDGE( '', *, *, #173, .T. );
#146 = ORIENTED_EDGE( '', *, *, #171, .T. );
#147 = CARTESIAN_POINT( '', ( 0.000000000000000, 0.000000000000000, 1.25776544028220E-014 ) );
#148 = DIRECTION( '', ( 0.000000000000000, 0.000000000000000, -1.00000000000000 ) );
#149 = DIRECTION( '', ( 0.000000000000000, 1.00000000000000, 0.000000000000000 ) );
#150 = ORIENTED_EDGE( '', *, *, #174, .T. );
#151 = ORIENTED_EDGE( '', *, *, #170, .F. );
#152 = CARTESIAN_POINT( '', ( 4.62235100464293E-016, 7.54912138127511, 1.25776544028220E-014 ) );
#153 = DIRECTION( '', ( 0.000000000000000, 0.000000000000000, 1.00000000000000 ) );
#154 = DIRECTION( '', ( 1.00000000000000, 0.000000000000000, 0.000000000000000 ) );
#155 = ORIENTED_EDGE( '', *, *, #175, .F. );
#156 = ORIENTED_EDGE( '', *, *, #169, .T. );
#157 = CARTESIAN_POINT( '', ( 0.000000000000000, 0.000000000000000, 0.448478552756121 ) );
#158 = DIRECTION( '', ( 0.000000000000000, 0.000000000000000, 1.00000000000000 ) );
#159 = DIRECTION( '', ( 1.00000000000000, 0.000000000000000, 0.000000000000000 ) );
#160 = ORIENTED_EDGE( '', *, *, #176, .F. );
#161 = ORIENTED_EDGE( '', *, *, #175, .T. );
#162 = CARTESIAN_POINT( '', ( 0.000000000000000, 0.000000000000000, 28.9583510556634 ) );
#163 = DIRECTION( '', ( 0.000000000000000, 0.000000000000000, 1.00000000000000 ) );
#164 = DIRECTION( '', ( 1.00000000000000, 0.000000000000000, 0.000000000000000 ) );
#165 = ORIENTED_EDGE( '', *, *, #176, .T. );
#166 = CARTESIAN_POINT( '', ( 1.06217669540302E-031, 1.73472347597681E-015, 29.0000000000000 ) );
#167 = DIRECTION( '', ( 0.000000000000000, 0.000000000000000, 1.00000000000000 ) );
#168 = DIRECTION( '', ( 6.12303176911189E-017, 1.00000000000000, 0.000000000000000 ) );
#169 = EDGE_CURVE( '', #177, #177, #178, .T. );
#170 = EDGE_CURVE( '', #179, #179, #180, .T. );
#171 = EDGE_CURVE( '', #181, #181, #182, .T. );
#172 = CARTESIAN_POINT( '', ( 0.000000000000000, 0.000000000000000, 25.4408174517712 ) );
#173 = EDGE_CURVE( '', #183, #183, #184, .F. );
#174 = EDGE_CURVE( '', #185, #185, #186, .T. );
#175 = EDGE_CURVE( '', #187, #187, #188, .T. );
#176 = EDGE_CURVE( '', #189, #189, #190, .T. );
#177 = VERTEX_POINT( '', #191 );
#178 = CIRCLE( '', #192, 8.04645983793606 );
#179 = VERTEX_POINT( '', #193 );
#180 = CIRCLE( '', #194, 7.54912138127511 );
#181 = VERTEX_POINT( '', #195 );
#182 = CIRCLE( '', #196, 2.50000000000000 );
#183 = VERTEX_POINT( '', #197 );
#184 = CIRCLE( '', #198, 2.50000000000000 );
#185 = VERTEX_POINT( '', #199 );
#186 = CIRCLE( '', #200, 3.00000000000000 );
#187 = VERTEX_POINT( '', #201 );
#188 = CIRCLE( '', #202, 10.9393642930839 );
#189 = VERTEX_POINT( '', #203 );
#190 = CIRCLE( '', #204, 10.9864467548649 );
#191 = CARTESIAN_POINT( '', ( 8.04645983793606, 0.000000000000000, 0.448478552756121 ) );
#192 = AXIS2_PLACEMENT_3D( '', #205, #206, #207 );
#193 = CARTESIAN_POINT( '', ( 7.54912138127511, 0.000000000000000, 6.93889390390723E-015 ) );
#194 = AXIS2_PLACEMENT_3D( '', #208, #209, #210 );
#195 = CARTESIAN_POINT( '', ( 0.000000000000000, -2.50000000000000, 25.0000000000000 ) );
#196 = AXIS2_PLACEMENT_3D( '', #211, #212, #213 );
#197 = CARTESIAN_POINT( '', ( 2.50000000000000, 0.000000000000000, 0.500000000000013 ) );
#198 = AXIS2_PLACEMENT_3D( '', #214, #215, #216 );
#199 = CARTESIAN_POINT( '', ( 3.00000000000000, 0.000000000000000, 1.25776544028220E-014 ) );
#200 = AXIS2_PLACEMENT_3D( '', #217, #218, #219 );
#201 = CARTESIAN_POINT( '', ( 10.9393642930839, 0.000000000000000, 28.3737934256141 ) );
#202 = AXIS2_PLACEMENT_3D( '', #220, #221, #222 );
#203 = CARTESIAN_POINT( '', ( 10.9864467548649, 0.000000000000000, 29.5458824988200 ) );
#204 = AXIS2_PLACEMENT_3D( '', #223, #224, #225 );
#205 = CARTESIAN_POINT( '', ( 0.000000000000000, 0.000000000000000, 0.448478552756121 ) );
#206 = DIRECTION( '', ( 0.000000000000000, 0.000000000000000, 1.00000000000000 ) );
#207 = DIRECTION( '', ( 1.00000000000000, 0.000000000000000, 0.000000000000000 ) );
#208 = CARTESIAN_POINT( '', ( 0.000000000000000, 0.000000000000000, 6.93889390390723E-015 ) );
#209 = DIRECTION( '', ( 0.000000000000000, 0.000000000000000, 1.00000000000000 ) );
#210 = DIRECTION( '', ( 1.00000000000000, 0.000000000000000, 0.000000000000000 ) );
#211 = CARTESIAN_POINT( '', ( 0.000000000000000, 0.000000000000000, 25.0000000000000 ) );
#212 = DIRECTION( '', ( 0.000000000000000, 0.000000000000000, 1.00000000000000 ) );
#213 = DIRECTION( '', ( 0.000000000000000, -1.00000000000000, 0.000000000000000 ) );
#214 = CARTESIAN_POINT( '', ( 0.000000000000000, 0.000000000000000, 0.500000000000013 ) );
#215 = DIRECTION( '', ( 0.000000000000000, 0.000000000000000, 1.00000000000000 ) );
#216 = DIRECTION( '', ( 1.00000000000000, 0.000000000000000, 0.000000000000000 ) );
#217 = CARTESIAN_POINT( '', ( 0.000000000000000, 0.000000000000000, 1.25776544028220E-014 ) );
#218 = DIRECTION( '', ( 0.000000000000000, 0.000000000000000, 1.00000000000000 ) );
#219 = DIRECTION( '', ( 1.00000000000000, 0.000000000000000, 0.000000000000000 ) );
#220 = CARTESIAN_POINT( '', ( 0.000000000000000, 0.000000000000000, 28.3737934256141 ) );
#221 = DIRECTION( '', ( 0.000000000000000, 0.000000000000000, 1.00000000000000 ) );
#222 = DIRECTION( '', ( 1.00000000000000, 0.000000000000000, 0.000000000000000 ) );
#223 = CARTESIAN_POINT( '', ( 0.000000000000000, 0.000000000000000, 29.5458824988200 ) );
#224 = DIRECTION( '', ( 0.000000000000000, 0.000000000000000, 1.00000000000000 ) );
#225 = DIRECTION( '', ( 1.00000000000000, 0.000000000000000, 0.000000000000000 ) );
ENDSEC;
END-ISO-10303-21;
