ISO-10303-21;
HEADER;
FILE_DESCRIPTION( ( 'Unknown' ), '1' );
FILE_NAME( 'E:/98-Dis_3D_per_controllo/MCC/6140010_MCC_25x55/6140010_MCC_25x55.stp', 'Unknown', ( 'Unknown' ), ( 'Unknown' ), 'PSStep 11.0', 'Unknown', '  ' );
FILE_SCHEMA( ( 'AUTOMOTIVE_DESIGN { 1 0 10303 214 1 1 1 1 }' ) );
ENDSEC;
DATA;
#1 = MECHANICAL_DESIGN_GEOMETRIC_PRESENTATION_REPRESENTATION( ' ', ( #10, #11, #12, #13, #14, #15, #16, #17, #18 ), #6 );
#2 = PRODUCT_DEFINITION_CONTEXT( '', #19, 'design' );
#3 = APPLICATION_PROTOCOL_DEFINITION( 'INTERNATIONAL STANDARD', 'automotive_design', 2001, #19 );
#4 = PRODUCT_CATEGORY_RELATIONSHIP( 'NONE', 'NONE', #20, #21 );
#5 = SHAPE_DEFINITION_REPRESENTATION( #22, #23 );
#6 =  ( GEOMETRIC_REPRESENTATION_CONTEXT( 3 )GLOBAL_UNCERTAINTY_ASSIGNED_CONTEXT( ( #26 ) )GLOBAL_UNIT_ASSIGNED_CONTEXT( ( #28, #29, #30 ) )REPRESENTATION_CONTEXT( 'NONE', 'WORKSPACE' ) );
#10 = STYLED_ITEM( '', ( #32 ), #33 );
#11 = STYLED_ITEM( '', ( #34 ), #35 );
#12 = STYLED_ITEM( '', ( #36 ), #37 );
#13 = STYLED_ITEM( '', ( #38 ), #39 );
#14 = STYLED_ITEM( '', ( #40 ), #41 );
#15 = STYLED_ITEM( '', ( #42 ), #43 );
#16 = STYLED_ITEM( '', ( #44 ), #45 );
#17 = STYLED_ITEM( '', ( #46 ), #47 );
#18 = STYLED_ITEM( '', ( #48 ), #49 );
#19 = APPLICATION_CONTEXT( 'core data for automotive mechanical design processes' );
#20 = PRODUCT_CATEGORY( 'part', 'NONE' );
#21 = PRODUCT_RELATED_PRODUCT_CATEGORY( 'detail', ' ', ( #50 ) );
#22 = PRODUCT_DEFINITION_SHAPE( 'NONE', 'NONE', #51 );
#23 = ADVANCED_BREP_SHAPE_REPRESENTATION( '1', ( #52, #53 ), #6 );
#26 = UNCERTAINTY_MEASURE_WITH_UNIT( LENGTH_MEASURE( 0.00100000000000000 ), #28, '', '' );
#28 =  ( CONVERSION_BASED_UNIT( 'MILLIMETRE', #56 )LENGTH_UNIT(  )NAMED_UNIT( #59 ) );
#29 =  ( NAMED_UNIT( #61 )PLANE_ANGLE_UNIT(  )SI_UNIT( $, .RADIAN. ) );
#30 =  ( NAMED_UNIT( #61 )SI_UNIT( $, .STERADIAN. )SOLID_ANGLE_UNIT(  ) );
#32 = PRESENTATION_STYLE_ASSIGNMENT( ( #67 ) );
#33 = ADVANCED_FACE( '', ( #68 ), #69, .T. );
#34 = PRESENTATION_STYLE_ASSIGNMENT( ( #70 ) );
#35 = ADVANCED_FACE( '', ( #71, #72 ), #73, .F. );
#36 = PRESENTATION_STYLE_ASSIGNMENT( ( #74 ) );
#37 = ADVANCED_FACE( '', ( #75, #76 ), #77, .F. );
#38 = PRESENTATION_STYLE_ASSIGNMENT( ( #78 ) );
#39 = ADVANCED_FACE( '', ( #79, #80 ), #81, .T. );
#40 = PRESENTATION_STYLE_ASSIGNMENT( ( #82 ) );
#41 = ADVANCED_FACE( '', ( #83, #84 ), #85, .F. );
#42 = PRESENTATION_STYLE_ASSIGNMENT( ( #86 ) );
#43 = ADVANCED_FACE( '', ( #87, #88 ), #89, .T. );
#44 = PRESENTATION_STYLE_ASSIGNMENT( ( #90 ) );
#45 = ADVANCED_FACE( '', ( #91, #92 ), #93, .T. );
#46 = PRESENTATION_STYLE_ASSIGNMENT( ( #94 ) );
#47 = ADVANCED_FACE( '', ( #95, #96 ), #97, .F. );
#48 = PRESENTATION_STYLE_ASSIGNMENT( ( #98 ) );
#49 = ADVANCED_FACE( '', ( #99, #100 ), #101, .F. );
#50 = PRODUCT( '1', '1', 'PART-1-DESC', ( #102 ) );
#51 = PRODUCT_DEFINITION( 'NONE', 'NONE', #103, #2 );
#52 = MANIFOLD_SOLID_BREP( '1', #104 );
#53 = AXIS2_PLACEMENT_3D( '', #105, #106, #107 );
#56 = LENGTH_MEASURE_WITH_UNIT( LENGTH_MEASURE( 1.00000000000000 ), #108 );
#59 = DIMENSIONAL_EXPONENTS( 1.00000000000000, 0.000000000000000, 0.000000000000000, 0.000000000000000, 0.000000000000000, 0.000000000000000, 0.000000000000000 );
#61 = DIMENSIONAL_EXPONENTS( 0.000000000000000, 0.000000000000000, 0.000000000000000, 0.000000000000000, 0.000000000000000, 0.000000000000000, 0.000000000000000 );
#67 = SURFACE_STYLE_USAGE( .BOTH., #109 );
#68 = FACE_OUTER_BOUND( '', #110, .T. );
#69 = SPHERICAL_SURFACE( '', #111, 12.5000000000000 );
#70 = SURFACE_STYLE_USAGE( .BOTH., #112 );
#71 = FACE_OUTER_BOUND( '', #113, .T. );
#72 = FACE_BOUND( '', #114, .T. );
#73 = PLANE( '', #115 );
#74 = SURFACE_STYLE_USAGE( .BOTH., #116 );
#75 = FACE_OUTER_BOUND( '', #117, .T. );
#76 = FACE_OUTER_BOUND( '', #118, .T. );
#77 = TOROIDAL_SURFACE( '', #119, 12.7500000000000, 1.00000000000000 );
#78 = SURFACE_STYLE_USAGE( .BOTH., #120 );
#79 = FACE_OUTER_BOUND( '', #121, .T. );
#80 = FACE_OUTER_BOUND( '', #122, .T. );
#81 = TOROIDAL_SURFACE( '', #123, 7.39528184893473, 1.00000000000000 );
#82 = SURFACE_STYLE_USAGE( .BOTH., #124 );
#83 = FACE_OUTER_BOUND( '', #125, .T. );
#84 = FACE_OUTER_BOUND( '', #126, .T. );
#85 = CYLINDRICAL_SURFACE( '', #127, 4.18800000000000 );
#86 = SURFACE_STYLE_USAGE( .BOTH., #128 );
#87 = FACE_BOUND( '', #129, .T. );
#88 = FACE_OUTER_BOUND( '', #130, .T. );
#89 = CONICAL_SURFACE( '', #131, 8.30000000000000, 0.0999649106464659 );
#90 = SURFACE_STYLE_USAGE( .BOTH., #132 );
#91 = FACE_OUTER_BOUND( '', #133, .T. );
#92 = FACE_OUTER_BOUND( '', #134, .T. );
#93 = TOROIDAL_SURFACE( '', #135, 5.18800000000000, 1.00000000000000 );
#94 = SURFACE_STYLE_USAGE( .BOTH., #136 );
#95 = FACE_OUTER_BOUND( '', #137, .T. );
#96 = FACE_OUTER_BOUND( '', #138, .T. );
#97 = CYLINDRICAL_SURFACE( '', #139, 4.18800000000000 );
#98 = SURFACE_STYLE_USAGE( .BOTH., #140 );
#99 = FACE_OUTER_BOUND( '', #141, .T. );
#100 = FACE_BOUND( '', #142, .T. );
#101 = CONICAL_SURFACE( '', #143, 4.18800000000000, 1.02974425867665 );
#102 = PRODUCT_CONTEXT( '', #19, 'mechanical' );
#103 = PRODUCT_DEFINITION_FORMATION_WITH_SPECIFIED_SOURCE( ' ', 'NONE', #50, .NOT_KNOWN. );
#104 = CLOSED_SHELL( '', ( #47, #39, #49, #45, #41, #33, #43, #35, #37 ) );
#105 = CARTESIAN_POINT( '', ( 0.000000000000000, 0.000000000000000, 0.000000000000000 ) );
#106 = DIRECTION( '', ( 0.000000000000000, 0.000000000000000, 1.00000000000000 ) );
#107 = DIRECTION( '', ( 1.00000000000000, 0.000000000000000, 0.000000000000000 ) );
#108 =  ( LENGTH_UNIT(  )NAMED_UNIT( #59 )SI_UNIT( .MILLI., .METRE. ) );
#109 = SURFACE_SIDE_STYLE( '', ( #145 ) );
#110 = EDGE_LOOP( '', ( #146 ) );
#111 = AXIS2_PLACEMENT_3D( '', #147, #148, #149 );
#112 = SURFACE_SIDE_STYLE( '', ( #150 ) );
#113 = EDGE_LOOP( '', ( #151 ) );
#114 = EDGE_LOOP( '', ( #152 ) );
#115 = AXIS2_PLACEMENT_3D( '', #153, #154, #155 );
#116 = SURFACE_SIDE_STYLE( '', ( #156 ) );
#117 = EDGE_LOOP( '', ( #157 ) );
#118 = EDGE_LOOP( '', ( #158 ) );
#119 = AXIS2_PLACEMENT_3D( '', #159, #160, #161 );
#120 = SURFACE_SIDE_STYLE( '', ( #162 ) );
#121 = EDGE_LOOP( '', ( #163 ) );
#122 = EDGE_LOOP( '', ( #164 ) );
#123 = AXIS2_PLACEMENT_3D( '', #165, #166, #167 );
#124 = SURFACE_SIDE_STYLE( '', ( #168 ) );
#125 = EDGE_LOOP( '', ( #169 ) );
#126 = EDGE_LOOP( '', ( #170 ) );
#127 = AXIS2_PLACEMENT_3D( '', #171, #172, #173 );
#128 = SURFACE_SIDE_STYLE( '', ( #174 ) );
#129 = EDGE_LOOP( '', ( #175 ) );
#130 = EDGE_LOOP( '', ( #176 ) );
#131 = AXIS2_PLACEMENT_3D( '', #177, #178, #179 );
#132 = SURFACE_SIDE_STYLE( '', ( #180 ) );
#133 = EDGE_LOOP( '', ( #181 ) );
#134 = EDGE_LOOP( '', ( #182 ) );
#135 = AXIS2_PLACEMENT_3D( '', #183, #184, #185 );
#136 = SURFACE_SIDE_STYLE( '', ( #186 ) );
#137 = EDGE_LOOP( '', ( #187 ) );
#138 = EDGE_LOOP( '', ( #188 ) );
#139 = AXIS2_PLACEMENT_3D( '', #189, #190, #191 );
#140 = SURFACE_SIDE_STYLE( '', ( #192 ) );
#141 = EDGE_LOOP( '', ( #193 ) );
#142 = VERTEX_LOOP( '', #194 );
#143 = AXIS2_PLACEMENT_3D( '', #195, #196, #197 );
#145 = SURFACE_STYLE_FILL_AREA( #198 );
#146 = ORIENTED_EDGE( '', *, *, #199, .F. );
#147 = CARTESIAN_POINT( '', ( 3.36777869765522E-015, 0.000000000000000, 42.5000000000000 ) );
#148 = DIRECTION( '', ( -1.17598666778273E-016, 0.000000000000000, 1.00000000000000 ) );
#149 = DIRECTION( '', ( 1.00000000000000, 0.000000000000000, 1.17598666778273E-016 ) );
#150 = SURFACE_STYLE_FILL_AREA( #200 );
#151 = ORIENTED_EDGE( '', *, *, #201, .T. );
#152 = ORIENTED_EDGE( '', *, *, #202, .T. );
#153 = CARTESIAN_POINT( '', ( 3.76398890933139E-015, 0.000000000000000, -4.88034467129835E-016 ) );
#154 = DIRECTION( '', ( -1.17598666778273E-016, 0.000000000000000, 1.00000000000000 ) );
#155 = DIRECTION( '', ( 1.00000000000000, 0.000000000000000, 1.17598666778273E-016 ) );
#156 = SURFACE_STYLE_FILL_AREA( #203 );
#157 = ORIENTED_EDGE( '', *, *, #204, .T. );
#158 = ORIENTED_EDGE( '', *, *, #199, .T. );
#159 = CARTESIAN_POINT( '', ( 0.000000000000000, 0.000000000000000, 41.0000000000000 ) );
#160 = DIRECTION( '', ( 0.000000000000000, 0.000000000000000, 1.00000000000000 ) );
#161 = DIRECTION( '', ( 1.00000000000000, 0.000000000000000, 0.000000000000000 ) );
#162 = SURFACE_STYLE_FILL_AREA( #205 );
#163 = ORIENTED_EDGE( '', *, *, #201, .F. );
#164 = ORIENTED_EDGE( '', *, *, #206, .F. );
#165 = CARTESIAN_POINT( '', ( 3.64639024255312E-015, 0.000000000000000, 1.00000000000000 ) );
#166 = DIRECTION( '', ( -1.17598666778273E-016, 0.000000000000000, 1.00000000000000 ) );
#167 = DIRECTION( '', ( 1.00000000000000, 0.000000000000000, 1.17598666778273E-016 ) );
#168 = SURFACE_STYLE_FILL_AREA( #207 );
#169 = ORIENTED_EDGE( '', *, *, #208, .T. );
#170 = ORIENTED_EDGE( '', *, *, #209, .F. );
#171 = CARTESIAN_POINT( '', ( 0.000000000000000, 0.000000000000000, 0.000000000000000 ) );
#172 = DIRECTION( '', ( -0.000000000000000, 0.000000000000000, -1.00000000000000 ) );
#173 = DIRECTION( '', ( 0.000000000000000, 1.00000000000000, 0.000000000000000 ) );
#174 = SURFACE_STYLE_FILL_AREA( #210 );
#175 = ORIENTED_EDGE( '', *, *, #206, .T. );
#176 = ORIENTED_EDGE( '', *, *, #204, .F. );
#177 = CARTESIAN_POINT( '', ( 3.76398890933139E-015, 0.000000000000000, 0.000000000000000 ) );
#178 = DIRECTION( '', ( -1.17598666778273E-016, 0.000000000000000, 1.00000000000000 ) );
#179 = DIRECTION( '', ( 1.00000000000000, 0.000000000000000, 1.17598666778273E-016 ) );
#180 = SURFACE_STYLE_FILL_AREA( #211 );
#181 = ORIENTED_EDGE( '', *, *, #208, .F. );
#182 = ORIENTED_EDGE( '', *, *, #202, .F. );
#183 = CARTESIAN_POINT( '', ( 0.000000000000000, 0.000000000000000, 1.00000000000000 ) );
#184 = DIRECTION( '', ( -1.17598666778273E-016, 0.000000000000000, 1.00000000000000 ) );
#185 = DIRECTION( '', ( 1.00000000000000, 0.000000000000000, 1.17598666778273E-016 ) );
#186 = SURFACE_STYLE_FILL_AREA( #212 );
#187 = ORIENTED_EDGE( '', *, *, #213, .T. );
#188 = ORIENTED_EDGE( '', *, *, #209, .T. );
#189 = CARTESIAN_POINT( '', ( 0.000000000000000, 0.000000000000000, 0.000000000000000 ) );
#190 = DIRECTION( '', ( -0.000000000000000, 0.000000000000000, -1.00000000000000 ) );
#191 = DIRECTION( '', ( 0.000000000000000, 1.00000000000000, 0.000000000000000 ) );
#192 = SURFACE_STYLE_FILL_AREA( #214 );
#193 = ORIENTED_EDGE( '', *, *, #213, .F. );
#194 = VERTEX_POINT( '', #215 );
#195 = CARTESIAN_POINT( '', ( 0.000000000000000, 0.000000000000000, 35.0000000000000 ) );
#196 = DIRECTION( '', ( 0.000000000000000, -0.000000000000000, -1.00000000000000 ) );
#197 = DIRECTION( '', ( 0.000000000000000, -1.00000000000000, 0.000000000000000 ) );
#198 = FILL_AREA_STYLE( '', ( #216 ) );
#199 = EDGE_CURVE( '', #217, #217, #218, .F. );
#200 = FILL_AREA_STYLE( '', ( #219 ) );
#201 = EDGE_CURVE( '', #220, #220, #221, .F. );
#202 = EDGE_CURVE( '', #222, #222, #223, .T. );
#203 = FILL_AREA_STYLE( '', ( #224 ) );
#204 = EDGE_CURVE( '', #225, #225, #226, .T. );
#205 = FILL_AREA_STYLE( '', ( #227 ) );
#206 = EDGE_CURVE( '', #228, #228, #229, .F. );
#207 = FILL_AREA_STYLE( '', ( #230 ) );
#208 = EDGE_CURVE( '', #231, #231, #232, .F. );
#209 = EDGE_CURVE( '', #233, #233, #234, .T. );
#210 = FILL_AREA_STYLE( '', ( #235 ) );
#211 = FILL_AREA_STYLE( '', ( #236 ) );
#212 = FILL_AREA_STYLE( '', ( #237 ) );
#213 = EDGE_CURVE( '', #238, #238, #239, .T. );
#214 = FILL_AREA_STYLE( '', ( #240 ) );
#215 = CARTESIAN_POINT( '', ( 0.000000000000000, 0.000000000000000, 37.5164042724874 ) );
#216 = FILL_AREA_STYLE_COLOUR( '', #241 );
#217 = VERTEX_POINT( '', #242 );
#218 = CIRCLE( '', #243, 12.4885551063633 );
#219 = FILL_AREA_STYLE_COLOUR( '', #244 );
#220 = VERTEX_POINT( '', #245 );
#221 = CIRCLE( '', #246, 7.39528184893473 );
#222 = VERTEX_POINT( '', #247 );
#223 = CIRCLE( '', #248, 5.18800000000000 );
#224 = FILL_AREA_STYLE_COLOUR( '', #249 );
#225 = VERTEX_POINT( '', #250 );
#226 = CIRCLE( '', #251, 12.3216373380829 );
#227 = FILL_AREA_STYLE_COLOUR( '', #252 );
#228 = VERTEX_POINT( '', #253 );
#229 = CIRCLE( '', #254, 8.39028951669025 );
#230 = FILL_AREA_STYLE_COLOUR( '', #255 );
#231 = VERTEX_POINT( '', #256 );
#232 = CIRCLE( '', #257, 4.18800000000000 );
#233 = VERTEX_POINT( '', #258 );
#234 = CIRCLE( '', #259, 4.18800000000000 );
#235 = FILL_AREA_STYLE_COLOUR( '', #260 );
#236 = FILL_AREA_STYLE_COLOUR( '', #261 );
#237 = FILL_AREA_STYLE_COLOUR( '', #262 );
#238 = VERTEX_POINT( '', #263 );
#239 = CIRCLE( '', #264, 4.18800000000000 );
#240 = FILL_AREA_STYLE_COLOUR( '', #265 );
#241 = COLOUR_RGB( '', 0.200000002980232, 0.200000002980232, 0.200000002980232 );
#242 = CARTESIAN_POINT( '', ( 12.4885551063633, 0.000000000000000, 41.9652184040885 ) );
#243 = AXIS2_PLACEMENT_3D( '', #266, #267, #268 );
#244 = COLOUR_RGB( '', 0.200000002980232, 0.200000002980232, 0.200000002980232 );
#245 = CARTESIAN_POINT( '', ( 7.39528184893473, 0.000000000000000, 4.35994416890087E-016 ) );
#246 = AXIS2_PLACEMENT_3D( '', #269, #270, #271 );
#247 = CARTESIAN_POINT( '', ( 5.18800000000000, 0.000000000000000, 1.76421014251480E-016 ) );
#248 = AXIS2_PLACEMENT_3D( '', #272, #273, #274 );
#249 = COLOUR_RGB( '', 0.200000002980232, 0.200000002980232, 0.200000002980232 );
#250 = CARTESIAN_POINT( '', ( 12.3216373380829, 0.000000000000000, 40.0963930999182 ) );
#251 = AXIS2_PLACEMENT_3D( '', #275, #276, #277 );
#252 = COLOUR_RGB( '', 0.200000002980232, 0.200000002980232, 0.200000002980232 );
#253 = CARTESIAN_POINT( '', ( -8.39028951669025, 0.000000000000000, 0.900201497467542 ) );
#254 = AXIS2_PLACEMENT_3D( '', #278, #279, #280 );
#255 = COLOUR_RGB( '', 0.752941191196442, 0.752941191196442, 0.752941191196442 );
#256 = CARTESIAN_POINT( '', ( 4.18800000000000, 0.000000000000000, 1.00000000000000 ) );
#257 = AXIS2_PLACEMENT_3D( '', #281, #282, #283 );
#258 = CARTESIAN_POINT( '', ( 0.000000000000000, 4.18800000000000, 30.0000000000000 ) );
#259 = AXIS2_PLACEMENT_3D( '', #284, #285, #286 );
#260 = COLOUR_RGB( '', 0.200000002980232, 0.200000002980232, 0.200000002980232 );
#261 = COLOUR_RGB( '', 0.200000002980232, 0.200000002980232, 0.200000002980232 );
#262 = COLOUR_RGB( '', 0.200000002980232, 0.200000002980232, 0.200000002980232 );
#263 = CARTESIAN_POINT( '', ( 0.000000000000000, -4.18800000000000, 35.0000000000000 ) );
#264 = AXIS2_PLACEMENT_3D( '', #287, #288, #289 );
#265 = COLOUR_RGB( '', 0.200000002980232, 0.200000002980232, 0.200000002980232 );
#266 = CARTESIAN_POINT( '', ( 1.08354732662464E-015, 0.000000000000000, 41.9652184040885 ) );
#267 = DIRECTION( '', ( 1.12259289921840E-015, 0.000000000000000, 1.00000000000000 ) );
#268 = DIRECTION( '', ( 1.00000000000000, 0.000000000000000, -1.12259289921840E-015 ) );
#269 = CARTESIAN_POINT( '', ( 3.76398890933139E-015, 0.000000000000000, -4.33680868994202E-016 ) );
#270 = DIRECTION( '', ( -1.17598666778273E-016, 0.000000000000000, 1.00000000000000 ) );
#271 = DIRECTION( '', ( 1.00000000000000, 0.000000000000000, 1.17598666778273E-016 ) );
#272 = CARTESIAN_POINT( '', ( 1.17598666778273E-016, 0.000000000000000, -4.33680868994202E-016 ) );
#273 = DIRECTION( '', ( -1.17598666778273E-016, 0.000000000000000, 1.00000000000000 ) );
#274 = DIRECTION( '', ( 1.00000000000000, 0.000000000000000, 1.17598666778273E-016 ) );
#275 = CARTESIAN_POINT( '', ( 1.06262966741275E-016, 0.000000000000000, 40.0963930999182 ) );
#276 = DIRECTION( '', ( -1.17598666778273E-016, 0.000000000000000, 1.00000000000000 ) );
#277 = DIRECTION( '', ( 1.00000000000000, 0.000000000000000, 1.17598666778273E-016 ) );
#278 = CARTESIAN_POINT( '', ( 3.65812641339740E-015, 0.000000000000000, 0.900201497467543 ) );
#279 = DIRECTION( '', ( 1.17598666778273E-016, 0.000000000000000, -1.00000000000000 ) );
#280 = DIRECTION( '', ( -1.00000000000000, 0.000000000000000, -1.17598666778273E-016 ) );
#281 = CARTESIAN_POINT( '', ( 0.000000000000000, 0.000000000000000, 1.00000000000000 ) );
#282 = DIRECTION( '', ( -1.17598666778273E-016, 0.000000000000000, 1.00000000000000 ) );
#283 = DIRECTION( '', ( 1.00000000000000, 0.000000000000000, 1.17598666778273E-016 ) );
#284 = CARTESIAN_POINT( '', ( 0.000000000000000, 0.000000000000000, 30.0000000000000 ) );
#285 = DIRECTION( '', ( 0.000000000000000, 0.000000000000000, -1.00000000000000 ) );
#286 = DIRECTION( '', ( 0.000000000000000, 1.00000000000000, 0.000000000000000 ) );
#287 = CARTESIAN_POINT( '', ( 0.000000000000000, 0.000000000000000, 35.0000000000000 ) );
#288 = DIRECTION( '', ( 0.000000000000000, 0.000000000000000, 1.00000000000000 ) );
#289 = DIRECTION( '', ( 0.000000000000000, -1.00000000000000, 0.000000000000000 ) );
ENDSEC;
END-ISO-10303-21;
