ISO-10303-21;
HEADER;
FILE_DESCRIPTION( ( 'Unknown' ), '1' );
FILE_NAME( 'E:/98-Dis_3D_per_controllo/MCC/6140020_MCC_32x70/6140020_MCC_32x70.stp', 'Unknown', ( 'Unknown' ), ( 'Unknown' ), 'PSStep 11.0', 'Unknown', '  ' );
FILE_SCHEMA( ( 'AUTOMOTIVE_DESIGN { 1 0 10303 214 1 1 1 1 }' ) );
ENDSEC;
DATA;
#1 = MECHANICAL_DESIGN_GEOMETRIC_PRESENTATION_REPRESENTATION( ' ', ( #10, #11, #12, #13, #14, #15, #16, #17, #18 ), #6 );
#2 = PRODUCT_DEFINITION_CONTEXT( '', #19, 'design' );
#3 = APPLICATION_PROTOCOL_DEFINITION( 'INTERNATIONAL STANDARD', 'automotive_design', 2001, #19 );
#4 = PRODUCT_CATEGORY_RELATIONSHIP( 'NONE', 'NONE', #20, #21 );
#5 = SHAPE_DEFINITION_REPRESENTATION( #22, #23 );
#6 =  ( GEOMETRIC_REPRESENTATION_CONTEXT( 3 )GLOBAL_UNCERTAINTY_ASSIGNED_CONTEXT( ( #26 ) )GLOBAL_UNIT_ASSIGNED_CONTEXT( ( #28, #29, #30 ) )REPRESENTATION_CONTEXT( 'NONE', 'WORKSPACE' ) );
#10 = STYLED_ITEM( '', ( #32 ), #33 );
#11 = STYLED_ITEM( '', ( #34 ), #35 );
#12 = STYLED_ITEM( '', ( #36 ), #37 );
#13 = STYLED_ITEM( '', ( #38 ), #39 );
#14 = STYLED_ITEM( '', ( #40 ), #41 );
#15 = STYLED_ITEM( '', ( #42 ), #43 );
#16 = STYLED_ITEM( '', ( #44 ), #45 );
#17 = STYLED_ITEM( '', ( #46 ), #47 );
#18 = STYLED_ITEM( '', ( #48 ), #49 );
#19 = APPLICATION_CONTEXT( 'core data for automotive mechanical design processes' );
#20 = PRODUCT_CATEGORY( 'part', 'NONE' );
#21 = PRODUCT_RELATED_PRODUCT_CATEGORY( 'detail', ' ', ( #50 ) );
#22 = PRODUCT_DEFINITION_SHAPE( 'NONE', 'NONE', #51 );
#23 = ADVANCED_BREP_SHAPE_REPRESENTATION( '1', ( #52, #53 ), #6 );
#26 = UNCERTAINTY_MEASURE_WITH_UNIT( LENGTH_MEASURE( 0.00100000000000000 ), #28, '', '' );
#28 =  ( CONVERSION_BASED_UNIT( 'MILLIMETRE', #56 )LENGTH_UNIT(  )NAMED_UNIT( #59 ) );
#29 =  ( NAMED_UNIT( #61 )PLANE_ANGLE_UNIT(  )SI_UNIT( $, .RADIAN. ) );
#30 =  ( NAMED_UNIT( #61 )SI_UNIT( $, .STERADIAN. )SOLID_ANGLE_UNIT(  ) );
#32 = PRESENTATION_STYLE_ASSIGNMENT( ( #67 ) );
#33 = ADVANCED_FACE( '', ( #68 ), #69, .T. );
#34 = PRESENTATION_STYLE_ASSIGNMENT( ( #70 ) );
#35 = ADVANCED_FACE( '', ( #71, #72 ), #73, .T. );
#36 = PRESENTATION_STYLE_ASSIGNMENT( ( #74 ) );
#37 = ADVANCED_FACE( '', ( #75, #76 ), #77, .F. );
#38 = PRESENTATION_STYLE_ASSIGNMENT( ( #78 ) );
#39 = ADVANCED_FACE( '', ( #79, #80 ), #81, .F. );
#40 = PRESENTATION_STYLE_ASSIGNMENT( ( #82 ) );
#41 = ADVANCED_FACE( '', ( #83 ), #84, .F. );
#42 = PRESENTATION_STYLE_ASSIGNMENT( ( #85 ) );
#43 = ADVANCED_FACE( '', ( #86, #87 ), #88, .F. );
#44 = PRESENTATION_STYLE_ASSIGNMENT( ( #89 ) );
#45 = ADVANCED_FACE( '', ( #90, #91 ), #92, .F. );
#46 = PRESENTATION_STYLE_ASSIGNMENT( ( #93 ) );
#47 = ADVANCED_FACE( '', ( #94, #95 ), #96, .T. );
#48 = PRESENTATION_STYLE_ASSIGNMENT( ( #97 ) );
#49 = ADVANCED_FACE( '', ( #98, #99 ), #100, .T. );
#50 = PRODUCT( '1', '1', 'PART-1-DESC', ( #101 ) );
#51 = PRODUCT_DEFINITION( 'NONE', 'NONE', #102, #2 );
#52 = MANIFOLD_SOLID_BREP( '1', #103 );
#53 = AXIS2_PLACEMENT_3D( '', #104, #105, #106 );
#56 = LENGTH_MEASURE_WITH_UNIT( LENGTH_MEASURE( 1.00000000000000 ), #107 );
#59 = DIMENSIONAL_EXPONENTS( 1.00000000000000, 0.000000000000000, 0.000000000000000, 0.000000000000000, 0.000000000000000, 0.000000000000000, 0.000000000000000 );
#61 = DIMENSIONAL_EXPONENTS( 0.000000000000000, 0.000000000000000, 0.000000000000000, 0.000000000000000, 0.000000000000000, 0.000000000000000, 0.000000000000000 );
#67 = SURFACE_STYLE_USAGE( .BOTH., #108 );
#68 = FACE_OUTER_BOUND( '', #109, .T. );
#69 = SPHERICAL_SURFACE( '', #110, 16.0000000000000 );
#70 = SURFACE_STYLE_USAGE( .BOTH., #111 );
#71 = FACE_OUTER_BOUND( '', #112, .T. );
#72 = FACE_OUTER_BOUND( '', #113, .T. );
#73 = TOROIDAL_SURFACE( '', #114, 6.30300000000000, 1.25000000000000 );
#74 = SURFACE_STYLE_USAGE( .BOTH., #115 );
#75 = FACE_OUTER_BOUND( '', #116, .T. );
#76 = FACE_OUTER_BOUND( '', #117, .T. );
#77 = CYLINDRICAL_SURFACE( '', #118, 5.05300000000000 );
#78 = SURFACE_STYLE_USAGE( .BOTH., #119 );
#79 = FACE_OUTER_BOUND( '', #120, .T. );
#80 = FACE_OUTER_BOUND( '', #121, .T. );
#81 = TOROIDAL_SURFACE( '', #122, 16.0500000000000, 1.00000000000000 );
#82 = SURFACE_STYLE_USAGE( .BOTH., #123 );
#83 = FACE_OUTER_BOUND( '', #124, .T. );
#84 = PLANE( '', #125 );
#85 = SURFACE_STYLE_USAGE( .BOTH., #126 );
#86 = FACE_OUTER_BOUND( '', #127, .T. );
#87 = FACE_OUTER_BOUND( '', #128, .T. );
#88 = CYLINDRICAL_SURFACE( '', #129, 5.05300000000000 );
#89 = SURFACE_STYLE_USAGE( .BOTH., #130 );
#90 = FACE_BOUND( '', #131, .T. );
#91 = FACE_OUTER_BOUND( '', #132, .T. );
#92 = PLANE( '', #133 );
#93 = SURFACE_STYLE_USAGE( .BOTH., #134 );
#94 = FACE_BOUND( '', #135, .T. );
#95 = FACE_OUTER_BOUND( '', #136, .T. );
#96 = CONICAL_SURFACE( '', #137, 10.0000000000000, 0.112519432111242 );
#97 = SURFACE_STYLE_USAGE( .BOTH., #138 );
#98 = FACE_OUTER_BOUND( '', #139, .T. );
#99 = FACE_OUTER_BOUND( '', #140, .T. );
#100 = TOROIDAL_SURFACE( '', #141, 8.88329103310260, 1.25000000000000 );
#101 = PRODUCT_CONTEXT( '', #19, 'mechanical' );
#102 = PRODUCT_DEFINITION_FORMATION_WITH_SPECIFIED_SOURCE( ' ', 'NONE', #50, .NOT_KNOWN. );
#103 = CLOSED_SHELL( '', ( #43, #35, #41, #47, #37, #49, #33, #39, #45 ) );
#104 = CARTESIAN_POINT( '', ( 0.000000000000000, 0.000000000000000, 0.000000000000000 ) );
#105 = DIRECTION( '', ( 0.000000000000000, 0.000000000000000, 1.00000000000000 ) );
#106 = DIRECTION( '', ( 1.00000000000000, 0.000000000000000, 0.000000000000000 ) );
#107 =  ( LENGTH_UNIT(  )NAMED_UNIT( #59 )SI_UNIT( .MILLI., .METRE. ) );
#108 = SURFACE_SIDE_STYLE( '', ( #143 ) );
#109 = EDGE_LOOP( '', ( #144 ) );
#110 = AXIS2_PLACEMENT_3D( '', #145, #146, #147 );
#111 = SURFACE_SIDE_STYLE( '', ( #148 ) );
#112 = EDGE_LOOP( '', ( #149 ) );
#113 = EDGE_LOOP( '', ( #150 ) );
#114 = AXIS2_PLACEMENT_3D( '', #151, #152, #153 );
#115 = SURFACE_SIDE_STYLE( '', ( #154 ) );
#116 = EDGE_LOOP( '', ( #155 ) );
#117 = EDGE_LOOP( '', ( #156 ) );
#118 = AXIS2_PLACEMENT_3D( '', #157, #158, #159 );
#119 = SURFACE_SIDE_STYLE( '', ( #160 ) );
#120 = EDGE_LOOP( '', ( #161 ) );
#121 = EDGE_LOOP( '', ( #162 ) );
#122 = AXIS2_PLACEMENT_3D( '', #163, #164, #165 );
#123 = SURFACE_SIDE_STYLE( '', ( #166 ) );
#124 = EDGE_LOOP( '', ( #167 ) );
#125 = AXIS2_PLACEMENT_3D( '', #168, #169, #170 );
#126 = SURFACE_SIDE_STYLE( '', ( #171 ) );
#127 = EDGE_LOOP( '', ( #172 ) );
#128 = EDGE_LOOP( '', ( #173 ) );
#129 = AXIS2_PLACEMENT_3D( '', #174, #175, #176 );
#130 = SURFACE_SIDE_STYLE( '', ( #177 ) );
#131 = EDGE_LOOP( '', ( #178 ) );
#132 = EDGE_LOOP( '', ( #179 ) );
#133 = AXIS2_PLACEMENT_3D( '', #180, #181, #182 );
#134 = SURFACE_SIDE_STYLE( '', ( #183 ) );
#135 = EDGE_LOOP( '', ( #184 ) );
#136 = EDGE_LOOP( '', ( #185 ) );
#137 = AXIS2_PLACEMENT_3D( '', #186, #187, #188 );
#138 = SURFACE_SIDE_STYLE( '', ( #189 ) );
#139 = EDGE_LOOP( '', ( #190 ) );
#140 = EDGE_LOOP( '', ( #191 ) );
#141 = AXIS2_PLACEMENT_3D( '', #192, #193, #194 );
#143 = SURFACE_STYLE_FILL_AREA( #195 );
#144 = ORIENTED_EDGE( '', *, *, #196, .F. );
#145 = CARTESIAN_POINT( '', ( 0.000000000000000, 0.000000000000000, 54.0000000000000 ) );
#146 = DIRECTION( '', ( -5.47619518751070E-017, 0.000000000000000, 1.00000000000000 ) );
#147 = DIRECTION( '', ( 1.00000000000000, 0.000000000000000, 5.47619518751070E-017 ) );
#148 = SURFACE_STYLE_FILL_AREA( #197 );
#149 = ORIENTED_EDGE( '', *, *, #198, .F. );
#150 = ORIENTED_EDGE( '', *, *, #199, .F. );
#151 = CARTESIAN_POINT( '', ( 3.49655200626575E-015, 0.000000000000000, 1.25000000000000 ) );
#152 = DIRECTION( '', ( -5.47619518751070E-017, 0.000000000000000, 1.00000000000000 ) );
#153 = DIRECTION( '', ( 1.00000000000000, 0.000000000000000, 5.47619518751070E-017 ) );
#154 = SURFACE_STYLE_FILL_AREA( #200 );
#155 = ORIENTED_EDGE( '', *, *, #198, .T. );
#156 = ORIENTED_EDGE( '', *, *, #201, .F. );
#157 = CARTESIAN_POINT( '', ( 3.49655200626575E-015, 0.000000000000000, 0.000000000000000 ) );
#158 = DIRECTION( '', ( -0.000000000000000, 0.000000000000000, -1.00000000000000 ) );
#159 = DIRECTION( '', ( 0.000000000000000, 1.00000000000000, 0.000000000000000 ) );
#160 = SURFACE_STYLE_FILL_AREA( #202 );
#161 = ORIENTED_EDGE( '', *, *, #203, .T. );
#162 = ORIENTED_EDGE( '', *, *, #196, .T. );
#163 = CARTESIAN_POINT( '', ( 0.000000000000000, 0.000000000000000, 52.0000000000000 ) );
#164 = DIRECTION( '', ( 0.000000000000000, 0.000000000000000, 1.00000000000000 ) );
#165 = DIRECTION( '', ( 1.00000000000000, 0.000000000000000, 0.000000000000000 ) );
#166 = SURFACE_STYLE_FILL_AREA( #204 );
#167 = ORIENTED_EDGE( '', *, *, #205, .T. );
#168 = CARTESIAN_POINT( '', ( 3.49655200626575E-015, 0.000000000000000, 35.0000000000000 ) );
#169 = DIRECTION( '', ( 0.000000000000000, 0.000000000000000, 1.00000000000000 ) );
#170 = DIRECTION( '', ( 1.00000000000000, 0.000000000000000, 0.000000000000000 ) );
#171 = SURFACE_STYLE_FILL_AREA( #206 );
#172 = ORIENTED_EDGE( '', *, *, #205, .F. );
#173 = ORIENTED_EDGE( '', *, *, #201, .T. );
#174 = CARTESIAN_POINT( '', ( 3.49655200626575E-015, 0.000000000000000, 0.000000000000000 ) );
#175 = DIRECTION( '', ( -0.000000000000000, 0.000000000000000, -1.00000000000000 ) );
#176 = DIRECTION( '', ( 0.000000000000000, 1.00000000000000, 0.000000000000000 ) );
#177 = SURFACE_STYLE_FILL_AREA( #207 );
#178 = ORIENTED_EDGE( '', *, *, #199, .T. );
#179 = ORIENTED_EDGE( '', *, *, #208, .T. );
#180 = CARTESIAN_POINT( '', ( 5.20417042793042E-015, 0.000000000000000, -2.73809759375535E-016 ) );
#181 = DIRECTION( '', ( -5.47619518751070E-017, 0.000000000000000, 1.00000000000000 ) );
#182 = DIRECTION( '', ( 1.00000000000000, 0.000000000000000, 5.47619518751070E-017 ) );
#183 = SURFACE_STYLE_FILL_AREA( #209 );
#184 = ORIENTED_EDGE( '', *, *, #210, .T. );
#185 = ORIENTED_EDGE( '', *, *, #203, .F. );
#186 = CARTESIAN_POINT( '', ( 1.91666831562875E-015, 0.000000000000000, 0.000000000000000 ) );
#187 = DIRECTION( '', ( -5.47619518751070E-017, 0.000000000000000, 1.00000000000000 ) );
#188 = DIRECTION( '', ( 1.00000000000000, 0.000000000000000, 5.47619518751070E-017 ) );
#189 = SURFACE_STYLE_FILL_AREA( #211 );
#190 = ORIENTED_EDGE( '', *, *, #208, .F. );
#191 = ORIENTED_EDGE( '', *, *, #210, .F. );
#192 = CARTESIAN_POINT( '', ( 1.84821587578486E-015, 0.000000000000000, 1.25000000000000 ) );
#193 = DIRECTION( '', ( -5.47619518751070E-017, 0.000000000000000, 1.00000000000000 ) );
#194 = DIRECTION( '', ( 1.00000000000000, 0.000000000000000, 5.47619518751070E-017 ) );
#195 = FILL_AREA_STYLE( '', ( #212 ) );
#196 = EDGE_CURVE( '', #213, #213, #214, .F. );
#197 = FILL_AREA_STYLE( '', ( #215 ) );
#198 = EDGE_CURVE( '', #216, #216, #217, .F. );
#199 = EDGE_CURVE( '', #218, #218, #219, .T. );
#200 = FILL_AREA_STYLE( '', ( #220 ) );
#201 = EDGE_CURVE( '', #221, #221, #222, .T. );
#202 = FILL_AREA_STYLE( '', ( #223 ) );
#203 = EDGE_CURVE( '', #224, #224, #225, .T. );
#204 = FILL_AREA_STYLE( '', ( #226 ) );
#205 = EDGE_CURVE( '', #227, #227, #228, .T. );
#206 = FILL_AREA_STYLE( '', ( #229 ) );
#207 = FILL_AREA_STYLE( '', ( #230 ) );
#208 = EDGE_CURVE( '', #231, #231, #232, .F. );
#209 = FILL_AREA_STYLE( '', ( #233 ) );
#210 = EDGE_CURVE( '', #234, #234, #235, .F. );
#211 = FILL_AREA_STYLE( '', ( #236 ) );
#212 = FILL_AREA_STYLE_COLOUR( '', #237 );
#213 = VERTEX_POINT( '', #238 );
#214 = CIRCLE( '', #239, 15.9685108068929 );
#215 = FILL_AREA_STYLE_COLOUR( '', #240 );
#216 = VERTEX_POINT( '', #241 );
#217 = CIRCLE( '', #242, 5.05300000000000 );
#218 = VERTEX_POINT( '', #243 );
#219 = CIRCLE( '', #244, 6.30300000000000 );
#220 = FILL_AREA_STYLE_COLOUR( '', #245 );
#221 = VERTEX_POINT( '', #246 );
#222 = CIRCLE( '', #247, 5.05300000000000 );
#223 = FILL_AREA_STYLE_COLOUR( '', #248 );
#224 = VERTEX_POINT( '', #249 );
#225 = CIRCLE( '', #250, 15.7674367041874 );
#226 = FILL_AREA_STYLE_COLOUR( '', #251 );
#227 = VERTEX_POINT( '', #252 );
#228 = CIRCLE( '', #253, 5.05300000000000 );
#229 = FILL_AREA_STYLE_COLOUR( '', #254 );
#230 = FILL_AREA_STYLE_COLOUR( '', #255 );
#231 = VERTEX_POINT( '', #256 );
#232 = CIRCLE( '', #257, 8.88329103310260 );
#233 = FILL_AREA_STYLE_COLOUR( '', #258 );
#234 = VERTEX_POINT( '', #259 );
#235 = CIRCLE( '', #260, 10.1253864889621 );
#236 = FILL_AREA_STYLE_COLOUR( '', #261 );
#237 = COLOUR_RGB( '', 0.200000002980232, 0.200000002980232, 0.200000002980232 );
#238 = CARTESIAN_POINT( '', ( 15.9685108068929, 0.000000000000000, 52.9966742253155 ) );
#239 = AXIS2_PLACEMENT_3D( '', #262, #263, #264 );
#240 = COLOUR_RGB( '', 0.200000002980232, 0.200000002980232, 0.200000002980232 );
#241 = CARTESIAN_POINT( '', ( 5.05300000000000, 0.000000000000000, 1.25000000000000 ) );
#242 = AXIS2_PLACEMENT_3D( '', #265, #266, #267 );
#243 = CARTESIAN_POINT( '', ( 6.30300000000000, 0.000000000000000, 1.28324148171698E-016 ) );
#244 = AXIS2_PLACEMENT_3D( '', #268, #269, #270 );
#245 = COLOUR_RGB( '', 0.752941191196442, 0.752941191196442, 0.752941191196442 );
#246 = CARTESIAN_POINT( '', ( 3.49655200626575E-015, 5.05300000000000, 30.0000000000000 ) );
#247 = AXIS2_PLACEMENT_3D( '', #271, #272, #273 );
#248 = COLOUR_RGB( '', 0.200000002980232, 0.200000002980232, 0.200000002980232 );
#249 = CARTESIAN_POINT( '', ( 15.7674367041874, 0.000000000000000, 51.0407513440913 ) );
#250 = AXIS2_PLACEMENT_3D( '', #274, #275, #276 );
#251 = COLOUR_RGB( '', 0.200000002980232, 0.200000002980232, 0.200000002980232 );
#252 = CARTESIAN_POINT( '', ( 3.49655200626575E-015, 5.05300000000000, 35.0000000000000 ) );
#253 = AXIS2_PLACEMENT_3D( '', #277, #278, #279 );
#254 = COLOUR_RGB( '', 0.200000002980232, 0.200000002980232, 0.200000002980232 );
#255 = COLOUR_RGB( '', 0.200000002980232, 0.200000002980232, 0.200000002980232 );
#256 = CARTESIAN_POINT( '', ( 8.88329103310260, 0.000000000000000, 2.69625921550233E-016 ) );
#257 = AXIS2_PLACEMENT_3D( '', #280, #281, #282 );
#258 = COLOUR_RGB( '', 0.200000002980232, 0.200000002980232, 0.200000002980232 );
#259 = CARTESIAN_POINT( '', ( -10.1253864889621, 0.000000000000000, 1.10964730664065 ) );
#260 = AXIS2_PLACEMENT_3D( '', #283, #284, #285 );
#261 = COLOUR_RGB( '', 0.200000002980232, 0.200000002980232, 0.200000002980232 );
#262 = CARTESIAN_POINT( '', ( 0.000000000000000, 0.000000000000000, 52.9966742253155 ) );
#263 = DIRECTION( '', ( 0.000000000000000, 0.000000000000000, 1.00000000000000 ) );
#264 = DIRECTION( '', ( 1.00000000000000, 0.000000000000000, 0.000000000000000 ) );
#265 = CARTESIAN_POINT( '', ( 3.49655200626575E-015, 0.000000000000000, 1.25000000000000 ) );
#266 = DIRECTION( '', ( -5.47619518751070E-017, 0.000000000000000, 1.00000000000000 ) );
#267 = DIRECTION( '', ( 1.00000000000000, 0.000000000000000, 5.47619518751070E-017 ) );
#268 = CARTESIAN_POINT( '', ( 3.56500444610964E-015, 0.000000000000000, -2.16840434497101E-016 ) );
#269 = DIRECTION( '', ( -5.47619518751070E-017, 0.000000000000000, 1.00000000000000 ) );
#270 = DIRECTION( '', ( 1.00000000000000, 0.000000000000000, 5.47619518751070E-017 ) );
#271 = CARTESIAN_POINT( '', ( 3.49655200626575E-015, 0.000000000000000, 30.0000000000000 ) );
#272 = DIRECTION( '', ( 0.000000000000000, 0.000000000000000, -1.00000000000000 ) );
#273 = DIRECTION( '', ( 0.000000000000000, 1.00000000000000, 0.000000000000000 ) );
#274 = CARTESIAN_POINT( '', ( 5.25303287311325E-017, 0.000000000000000, 51.0407513440913 ) );
#275 = DIRECTION( '', ( -5.47619518751070E-017, 0.000000000000000, 1.00000000000000 ) );
#276 = DIRECTION( '', ( 1.00000000000000, 0.000000000000000, 5.47619518751070E-017 ) );
#277 = CARTESIAN_POINT( '', ( 3.49655200626575E-015, 0.000000000000000, 35.0000000000000 ) );
#278 = DIRECTION( '', ( 0.000000000000000, 0.000000000000000, -1.00000000000000 ) );
#279 = DIRECTION( '', ( 0.000000000000000, 1.00000000000000, 0.000000000000000 ) );
#280 = CARTESIAN_POINT( '', ( 1.91666831562875E-015, 0.000000000000000, -2.16840434497101E-016 ) );
#281 = DIRECTION( '', ( -5.47619518751070E-017, 0.000000000000000, 1.00000000000000 ) );
#282 = DIRECTION( '', ( 1.00000000000000, 0.000000000000000, 5.47619518751070E-017 ) );
#283 = CARTESIAN_POINT( '', ( 1.85590186322415E-015, 0.000000000000000, 1.10964730664065 ) );
#284 = DIRECTION( '', ( 5.47619518751070E-017, 0.000000000000000, -1.00000000000000 ) );
#285 = DIRECTION( '', ( -1.00000000000000, 0.000000000000000, -5.47619518751070E-017 ) );
ENDSEC;
END-ISO-10303-21;
