ISO-10303-21;
HEADER;
FILE_DESCRIPTION( ( 'Unknown' ), '1' );
FILE_NAME( '//SBS2003/HD_Usb/Disegni/08_LIB/Users_3D/PROD_GAMM_3D/IB/6159005_IB30.stp', 'Unknown', ( 'Unknown' ), ( 'Unknown' ), 'PSStep 11.0', 'Unknown', '  ' );
FILE_SCHEMA( ( 'AUTOMOTIVE_DESIGN { 1 0 10303 214 1 1 1 1 }' ) );
ENDSEC;
DATA;
#1 = MECHANICAL_DESIGN_GEOMETRIC_PRESENTATION_REPRESENTATION( ' ', ( #10, #11, #12, #13, #14, #15, #16, #17, #18 ), #6 );
#2 = PRODUCT_DEFINITION_CONTEXT( '', #19, 'design' );
#3 = APPLICATION_PROTOCOL_DEFINITION( 'INTERNATIONAL STANDARD', 'automotive_design', 2001, #19 );
#4 = PRODUCT_CATEGORY_RELATIONSHIP( 'NONE', 'NONE', #20, #21 );
#5 = SHAPE_DEFINITION_REPRESENTATION( #22, #23 );
#6 =  ( GEOMETRIC_REPRESENTATION_CONTEXT( 3 )GLOBAL_UNCERTAINTY_ASSIGNED_CONTEXT( ( #26 ) )GLOBAL_UNIT_ASSIGNED_CONTEXT( ( #28, #29, #30 ) )REPRESENTATION_CONTEXT( 'NONE', 'WORKSPACE' ) );
#10 = STYLED_ITEM( '', ( #32 ), #33 );
#11 = STYLED_ITEM( '', ( #34 ), #35 );
#12 = STYLED_ITEM( '', ( #36 ), #37 );
#13 = STYLED_ITEM( '', ( #38 ), #39 );
#14 = STYLED_ITEM( '', ( #40 ), #41 );
#15 = STYLED_ITEM( '', ( #42 ), #43 );
#16 = STYLED_ITEM( '', ( #44 ), #45 );
#17 = STYLED_ITEM( '', ( #46 ), #47 );
#18 = STYLED_ITEM( '', ( #48 ), #49 );
#19 = APPLICATION_CONTEXT( 'core data for automotive mechanical design processes' );
#20 = PRODUCT_CATEGORY( 'part', 'NONE' );
#21 = PRODUCT_RELATED_PRODUCT_CATEGORY( 'detail', ' ', ( #50 ) );
#22 = PRODUCT_DEFINITION_SHAPE( 'NONE', 'NONE', #51 );
#23 = ADVANCED_BREP_SHAPE_REPRESENTATION( '1', ( #52, #53 ), #6 );
#26 = UNCERTAINTY_MEASURE_WITH_UNIT( LENGTH_MEASURE( 0.00100000000000000 ), #28, '', '' );
#28 =  ( CONVERSION_BASED_UNIT( 'MILLIMETRE', #56 )LENGTH_UNIT(  )NAMED_UNIT( #59 ) );
#29 =  ( NAMED_UNIT( #61 )PLANE_ANGLE_UNIT(  )SI_UNIT( $, .RADIAN. ) );
#30 =  ( NAMED_UNIT( #61 )SI_UNIT( $, .STERADIAN. )SOLID_ANGLE_UNIT(  ) );
#32 = PRESENTATION_STYLE_ASSIGNMENT( ( #67 ) );
#33 = ADVANCED_FACE( '', ( #68, #69 ), #70, .T. );
#34 = PRESENTATION_STYLE_ASSIGNMENT( ( #71 ) );
#35 = ADVANCED_FACE( '', ( #72, #73 ), #74, .F. );
#36 = PRESENTATION_STYLE_ASSIGNMENT( ( #75 ) );
#37 = ADVANCED_FACE( '', ( #76, #77 ), #78, .T. );
#38 = PRESENTATION_STYLE_ASSIGNMENT( ( #79 ) );
#39 = ADVANCED_FACE( '', ( #80, #81 ), #82, .T. );
#40 = PRESENTATION_STYLE_ASSIGNMENT( ( #83 ) );
#41 = ADVANCED_FACE( '', ( #84, #85 ), #86, .F. );
#42 = PRESENTATION_STYLE_ASSIGNMENT( ( #87 ) );
#43 = ADVANCED_FACE( '', ( #88, #89 ), #90, .F. );
#44 = PRESENTATION_STYLE_ASSIGNMENT( ( #91 ) );
#45 = ADVANCED_FACE( '', ( #92, #93 ), #94, .F. );
#46 = PRESENTATION_STYLE_ASSIGNMENT( ( #95 ) );
#47 = ADVANCED_FACE( '', ( #96 ), #97, .T. );
#48 = PRESENTATION_STYLE_ASSIGNMENT( ( #98 ) );
#49 = ADVANCED_FACE( '', ( #99, #100 ), #101, .T. );
#50 = PRODUCT( '1', '1', 'PART-1-DESC', ( #102 ) );
#51 = PRODUCT_DEFINITION( 'NONE', 'NONE', #103, #2 );
#52 = MANIFOLD_SOLID_BREP( '1', #104 );
#53 = AXIS2_PLACEMENT_3D( '', #105, #106, #107 );
#56 = LENGTH_MEASURE_WITH_UNIT( LENGTH_MEASURE( 1.00000000000000 ), #108 );
#59 = DIMENSIONAL_EXPONENTS( 1.00000000000000, 0.000000000000000, 0.000000000000000, 0.000000000000000, 0.000000000000000, 0.000000000000000, 0.000000000000000 );
#61 = DIMENSIONAL_EXPONENTS( 0.000000000000000, 0.000000000000000, 0.000000000000000, 0.000000000000000, 0.000000000000000, 0.000000000000000, 0.000000000000000 );
#67 = SURFACE_STYLE_USAGE( .BOTH., #109 );
#68 = FACE_OUTER_BOUND( '', #110, .T. );
#69 = FACE_OUTER_BOUND( '', #111, .T. );
#70 = TOROIDAL_SURFACE( '', #112, 2.95850000000000, 0.500000000000000 );
#71 = SURFACE_STYLE_USAGE( .BOTH., #113 );
#72 = FACE_BOUND( '', #114, .T. );
#73 = FACE_OUTER_BOUND( '', #115, .T. );
#74 = PLANE( '', #116 );
#75 = SURFACE_STYLE_USAGE( .BOTH., #117 );
#76 = FACE_OUTER_BOUND( '', #118, .T. );
#77 = FACE_BOUND( '', #119, .T. );
#78 = CONICAL_SURFACE( '', #120, 13.2733234796480, 0.523598775598299 );
#79 = SURFACE_STYLE_USAGE( .BOTH., #121 );
#80 = FACE_OUTER_BOUND( '', #122, .T. );
#81 = FACE_OUTER_BOUND( '', #123, .T. );
#82 = ( BOUNDED_SURFACE(  )B_SPLINE_SURFACE( 3, 3, ( ( #126, #127, #128, #129, #130, #131, #132 ), ( #133, #134, #135, #136, #137, #138, #139 ), ( #140, #141, #142, #143, #144, #145, #146 ), ( #147, #148, #149, #150, #151, #152, #153 ) ), .UNSPECIFIED., .F., .T., .F. )B_SPLINE_SURFACE_WITH_KNOTS( ( 4, 4 ), ( 4, 3, 4 ), ( 0.000000000000000, 6.28318530717959 ), ( -0.549872370778785, -0.273215572845330, 0.00344122508812550 ), .UNSPECIFIED. )GEOMETRIC_REPRESENTATION_ITEM(  )RATIONAL_B_SPLINE_SURFACE( ( ( 1.00000000000000, 0.333333333333333, 0.333333333333333, 1.00000000000000, 0.333333333333333, 0.333333333333333, 1.00000000000000 ), ( 0.974649319007810, 0.324883106335937, 0.324883106335937, 0.974649319007810, 0.324883106335937, 0.324883106335937, 0.974649319007810 ), ( 0.974649319007810, 0.324883106335937, 0.324883106335937, 0.974649319007810, 0.324883106335937, 0.324883106335937, 0.974649319007810 ), ( 1.00000000000000, 0.333333333333333, 0.333333333333333, 1.00000000000000, 0.333333333333333, 0.333333333333333, 1.00000000000000 ) ) )REPRESENTATION_ITEM( '' )SURFACE(  ) );
#83 = SURFACE_STYLE_USAGE( .BOTH., #159 );
#84 = FACE_OUTER_BOUND( '', #160, .T. );
#85 = FACE_BOUND( '', #161, .T. );
#86 = CONICAL_SURFACE( '', #162, 2.45850000000000, 1.02974425867665 );
#87 = SURFACE_STYLE_USAGE( .BOTH., #163 );
#88 = FACE_OUTER_BOUND( '', #164, .T. );
#89 = FACE_OUTER_BOUND( '', #165, .T. );
#90 = CYLINDRICAL_SURFACE( '', #166, 2.45850000000000 );
#91 = SURFACE_STYLE_USAGE( .BOTH., #167 );
#92 = FACE_OUTER_BOUND( '', #168, .T. );
#93 = FACE_OUTER_BOUND( '', #169, .T. );
#94 = CYLINDRICAL_SURFACE( '', #170, 2.45850000000000 );
#95 = SURFACE_STYLE_USAGE( .BOTH., #171 );
#96 = FACE_OUTER_BOUND( '', #172, .T. );
#97 = SPHERICAL_SURFACE( '', #173, 50.0000000000000 );
#98 = SURFACE_STYLE_USAGE( .BOTH., #174 );
#99 = FACE_OUTER_BOUND( '', #175, .T. );
#100 = FACE_OUTER_BOUND( '', #176, .T. );
#101 = TOROIDAL_SURFACE( '', #177, 7.22093991504429, 0.500000000000000 );
#102 = PRODUCT_CONTEXT( '', #19, 'mechanical' );
#103 = PRODUCT_DEFINITION_FORMATION_WITH_SPECIFIED_SOURCE( ' ', 'NONE', #50, .NOT_KNOWN. );
#104 = CLOSED_SHELL( '', ( #39, #33, #41, #49, #43, #35, #45, #47, #37 ) );
#105 = CARTESIAN_POINT( '', ( 0.000000000000000, 0.000000000000000, 0.000000000000000 ) );
#106 = DIRECTION( '', ( 0.000000000000000, 0.000000000000000, 1.00000000000000 ) );
#107 = DIRECTION( '', ( 1.00000000000000, 0.000000000000000, 0.000000000000000 ) );
#108 =  ( LENGTH_UNIT(  )NAMED_UNIT( #59 )SI_UNIT( .MILLI., .METRE. ) );
#109 = SURFACE_SIDE_STYLE( '', ( #179 ) );
#110 = EDGE_LOOP( '', ( #180 ) );
#111 = EDGE_LOOP( '', ( #181 ) );
#112 = AXIS2_PLACEMENT_3D( '', #182, #183, #184 );
#113 = SURFACE_SIDE_STYLE( '', ( #185 ) );
#114 = EDGE_LOOP( '', ( #186 ) );
#115 = EDGE_LOOP( '', ( #187 ) );
#116 = AXIS2_PLACEMENT_3D( '', #188, #189, #190 );
#117 = SURFACE_SIDE_STYLE( '', ( #191 ) );
#118 = EDGE_LOOP( '', ( #192 ) );
#119 = EDGE_LOOP( '', ( #193 ) );
#120 = AXIS2_PLACEMENT_3D( '', #194, #195, #196 );
#121 = SURFACE_SIDE_STYLE( '', ( #197 ) );
#122 = EDGE_LOOP( '', ( #198 ) );
#123 = EDGE_LOOP( '', ( #199 ) );
#126 = CARTESIAN_POINT( '', ( 15.0173782132330, 0.000000000000000, 26.5396925876502 ) );
#127 = CARTESIAN_POINT( '', ( 15.0173782132330, 30.0347564264661, 26.5396925876502 ) );
#128 = CARTESIAN_POINT( '', ( -15.0173782132330, 30.0347564264661, 26.5396925876502 ) );
#129 = CARTESIAN_POINT( '', ( -15.0173782132330, 0.000000000000000, 26.5396925876502 ) );
#130 = CARTESIAN_POINT( '', ( -15.0173782132330, -30.0347564264661, 26.5396925876502 ) );
#131 = CARTESIAN_POINT( '', ( 15.0173782132330, -30.0347564264661, 26.5396925876502 ) );
#132 = CARTESIAN_POINT( '', ( 15.0173782132330, 0.000000000000000, 26.5396925876502 ) );
#133 = CARTESIAN_POINT( '', ( 15.0495244138764, 0.000000000000000, 17.1982304838957 ) );
#134 = CARTESIAN_POINT( '', ( 15.0495244138764, 30.0990488277529, 17.1982304838957 ) );
#135 = CARTESIAN_POINT( '', ( -15.0495244138764, 30.0990488277529, 17.1982304838957 ) );
#136 = CARTESIAN_POINT( '', ( -15.0495244138764, 0.000000000000000, 17.1982304838957 ) );
#137 = CARTESIAN_POINT( '', ( -15.0495244138764, -30.0990488277529, 17.1982304838957 ) );
#138 = CARTESIAN_POINT( '', ( 15.0495244138764, -30.0990488277529, 17.1982304838957 ) );
#139 = CARTESIAN_POINT( '', ( 15.0495244138764, 0.000000000000000, 17.1982304838957 ) );
#140 = CARTESIAN_POINT( '', ( 12.5289109166883, 0.000000000000000, 8.20320656998134 ) );
#141 = CARTESIAN_POINT( '', ( 12.5289109166883, 25.0578218333767, 8.20320656998134 ) );
#142 = CARTESIAN_POINT( '', ( -12.5289109166883, 25.0578218333767, 8.20320656998134 ) );
#143 = CARTESIAN_POINT( '', ( -12.5289109166883, 0.000000000000000, 8.20320656998134 ) );
#144 = CARTESIAN_POINT( '', ( -12.5289109166883, -25.0578218333767, 8.20320656998134 ) );
#145 = CARTESIAN_POINT( '', ( 12.5289109166883, -25.0578218333767, 8.20320656998134 ) );
#146 = CARTESIAN_POINT( '', ( 12.5289109166883, 0.000000000000000, 8.20320656998134 ) );
#147 = CARTESIAN_POINT( '', ( 7.64723552768420, 0.000000000000000, 0.238710791183462 ) );
#148 = CARTESIAN_POINT( '', ( 7.64723552768420, 15.2944710553684, 0.238710791183462 ) );
#149 = CARTESIAN_POINT( '', ( -7.64723552768420, 15.2944710553684, 0.238710791183462 ) );
#150 = CARTESIAN_POINT( '', ( -7.64723552768420, 0.000000000000000, 0.238710791183462 ) );
#151 = CARTESIAN_POINT( '', ( -7.64723552768420, -15.2944710553684, 0.238710791183462 ) );
#152 = CARTESIAN_POINT( '', ( 7.64723552768420, -15.2944710553684, 0.238710791183462 ) );
#153 = CARTESIAN_POINT( '', ( 7.64723552768420, 0.000000000000000, 0.238710791183462 ) );
#159 = SURFACE_SIDE_STYLE( '', ( #200 ) );
#160 = EDGE_LOOP( '', ( #201 ) );
#161 = VERTEX_LOOP( '', #202 );
#162 = AXIS2_PLACEMENT_3D( '', #203, #204, #205 );
#163 = SURFACE_SIDE_STYLE( '', ( #206 ) );
#164 = EDGE_LOOP( '', ( #207 ) );
#165 = EDGE_LOOP( '', ( #208 ) );
#166 = AXIS2_PLACEMENT_3D( '', #209, #210, #211 );
#167 = SURFACE_SIDE_STYLE( '', ( #212 ) );
#168 = EDGE_LOOP( '', ( #213 ) );
#169 = EDGE_LOOP( '', ( #214 ) );
#170 = AXIS2_PLACEMENT_3D( '', #215, #216, #217 );
#171 = SURFACE_SIDE_STYLE( '', ( #218 ) );
#172 = EDGE_LOOP( '', ( #219 ) );
#173 = AXIS2_PLACEMENT_3D( '', #220, #221, #222 );
#174 = SURFACE_SIDE_STYLE( '', ( #223 ) );
#175 = EDGE_LOOP( '', ( #224 ) );
#176 = EDGE_LOOP( '', ( #225 ) );
#177 = AXIS2_PLACEMENT_3D( '', #226, #227, #228 );
#179 = SURFACE_STYLE_FILL_AREA( #229 );
#180 = ORIENTED_EDGE( '', *, *, #230, .F. );
#181 = ORIENTED_EDGE( '', *, *, #231, .F. );
#182 = CARTESIAN_POINT( '', ( 0.000000000000000, 0.000000000000000, 0.500000000000000 ) );
#183 = DIRECTION( '', ( 0.000000000000000, 0.000000000000000, 1.00000000000000 ) );
#184 = DIRECTION( '', ( 1.00000000000000, 0.000000000000000, 0.000000000000000 ) );
#185 = SURFACE_STYLE_FILL_AREA( #232 );
#186 = ORIENTED_EDGE( '', *, *, #231, .T. );
#187 = ORIENTED_EDGE( '', *, *, #233, .T. );
#188 = CARTESIAN_POINT( '', ( 3.90312782094781E-015, 0.000000000000000, 0.000000000000000 ) );
#189 = DIRECTION( '', ( 0.000000000000000, 0.000000000000000, 1.00000000000000 ) );
#190 = DIRECTION( '', ( 1.00000000000000, 0.000000000000000, 0.000000000000000 ) );
#191 = SURFACE_STYLE_FILL_AREA( #234 );
#192 = ORIENTED_EDGE( '', *, *, #235, .T. );
#193 = ORIENTED_EDGE( '', *, *, #236, .T. );
#194 = CARTESIAN_POINT( '', ( 0.000000000000000, 0.000000000000000, 29.5604839974005 ) );
#195 = DIRECTION( '', ( -0.000000000000000, 0.000000000000000, -1.00000000000000 ) );
#196 = DIRECTION( '', ( -1.00000000000000, 0.000000000000000, 0.000000000000000 ) );
#197 = SURFACE_STYLE_FILL_AREA( #237 );
#198 = ORIENTED_EDGE( '', *, *, #238, .T. );
#199 = ORIENTED_EDGE( '', *, *, #235, .F. );
#200 = SURFACE_STYLE_FILL_AREA( #239 );
#201 = ORIENTED_EDGE( '', *, *, #240, .F. );
#202 = VERTEX_POINT( '', #241 );
#203 = CARTESIAN_POINT( '', ( 0.000000000000000, 0.000000000000000, 25.0000000000000 ) );
#204 = DIRECTION( '', ( 0.000000000000000, -0.000000000000000, -1.00000000000000 ) );
#205 = DIRECTION( '', ( 0.000000000000000, -1.00000000000000, 0.000000000000000 ) );
#206 = SURFACE_STYLE_FILL_AREA( #242 );
#207 = ORIENTED_EDGE( '', *, *, #230, .T. );
#208 = ORIENTED_EDGE( '', *, *, #243, .F. );
#209 = CARTESIAN_POINT( '', ( 0.000000000000000, 0.000000000000000, 0.000000000000000 ) );
#210 = DIRECTION( '', ( -0.000000000000000, 0.000000000000000, -1.00000000000000 ) );
#211 = DIRECTION( '', ( 0.000000000000000, 1.00000000000000, 0.000000000000000 ) );
#212 = SURFACE_STYLE_FILL_AREA( #244 );
#213 = ORIENTED_EDGE( '', *, *, #240, .T. );
#214 = ORIENTED_EDGE( '', *, *, #243, .T. );
#215 = CARTESIAN_POINT( '', ( 0.000000000000000, 0.000000000000000, 0.000000000000000 ) );
#216 = DIRECTION( '', ( -0.000000000000000, 0.000000000000000, -1.00000000000000 ) );
#217 = DIRECTION( '', ( 0.000000000000000, 1.00000000000000, 0.000000000000000 ) );
#218 = SURFACE_STYLE_FILL_AREA( #245 );
#219 = ORIENTED_EDGE( '', *, *, #236, .F. );
#220 = CARTESIAN_POINT( '', ( 0.000000000000000, 0.000000000000000, -20.0000000000000 ) );
#221 = DIRECTION( '', ( 0.000000000000000, 0.000000000000000, 1.00000000000000 ) );
#222 = DIRECTION( '', ( 1.00000000000000, 0.000000000000000, 0.000000000000000 ) );
#223 = SURFACE_STYLE_FILL_AREA( #246 );
#224 = ORIENTED_EDGE( '', *, *, #233, .F. );
#225 = ORIENTED_EDGE( '', *, *, #238, .F. );
#226 = CARTESIAN_POINT( '', ( 0.000000000000000, 0.000000000000000, 0.500000000000000 ) );
#227 = DIRECTION( '', ( 0.000000000000000, 0.000000000000000, 1.00000000000000 ) );
#228 = DIRECTION( '', ( 1.00000000000000, 0.000000000000000, 0.000000000000000 ) );
#229 = FILL_AREA_STYLE( '', ( #247 ) );
#230 = EDGE_CURVE( '', #248, #248, #249, .F. );
#231 = EDGE_CURVE( '', #250, #250, #251, .T. );
#232 = FILL_AREA_STYLE( '', ( #252 ) );
#233 = EDGE_CURVE( '', #253, #253, #254, .F. );
#234 = FILL_AREA_STYLE( '', ( #255 ) );
#235 = EDGE_CURVE( '', #256, #256, #257, .T. );
#236 = EDGE_CURVE( '', #258, #258, #259, .T. );
#237 = FILL_AREA_STYLE( '', ( #260 ) );
#238 = EDGE_CURVE( '', #261, #261, #262, .T. );
#239 = FILL_AREA_STYLE( '', ( #263 ) );
#240 = EDGE_CURVE( '', #264, #264, #265, .T. );
#241 = CARTESIAN_POINT( '', ( 0.000000000000000, 0.000000000000000, 26.4772158318792 ) );
#242 = FILL_AREA_STYLE( '', ( #266 ) );
#243 = EDGE_CURVE( '', #267, #267, #268, .T. );
#244 = FILL_AREA_STYLE( '', ( #269 ) );
#245 = FILL_AREA_STYLE( '', ( #270 ) );
#246 = FILL_AREA_STYLE( '', ( #271 ) );
#247 = FILL_AREA_STYLE_COLOUR( '', #272 );
#248 = VERTEX_POINT( '', #273 );
#249 = CIRCLE( '', #274, 2.45850000000000 );
#250 = VERTEX_POINT( '', #275 );
#251 = CIRCLE( '', #276, 2.95850000000000 );
#252 = FILL_AREA_STYLE_COLOUR( '', #277 );
#253 = VERTEX_POINT( '', #278 );
#254 = CIRCLE( '', #279, 7.22093991504429 );
#255 = FILL_AREA_STYLE_COLOUR( '', #280 );
#256 = VERTEX_POINT( '', #281 );
#257 = CIRCLE( '', #282, 15.0173782132331 );
#258 = VERTEX_POINT( '', #283 );
#259 = CIRCLE( '', #284, 14.2099037126718 );
#260 = FILL_AREA_STYLE_COLOUR( '', #285 );
#261 = VERTEX_POINT( '', #286 );
#262 = CIRCLE( '', #287, 7.64723552768420 );
#263 = FILL_AREA_STYLE_COLOUR( '', #288 );
#264 = VERTEX_POINT( '', #289 );
#265 = CIRCLE( '', #290, 2.45850000000000 );
#266 = FILL_AREA_STYLE_COLOUR( '', #291 );
#267 = VERTEX_POINT( '', #292 );
#268 = CIRCLE( '', #293, 2.45850000000000 );
#269 = FILL_AREA_STYLE_COLOUR( '', #294 );
#270 = FILL_AREA_STYLE_COLOUR( '', #295 );
#271 = FILL_AREA_STYLE_COLOUR( '', #296 );
#272 = COLOUR_RGB( '', 0.200000002980232, 0.200000002980232, 0.200000002980232 );
#273 = CARTESIAN_POINT( '', ( 2.45850000000000, 0.000000000000000, 0.500000000000000 ) );
#274 = AXIS2_PLACEMENT_3D( '', #297, #298, #299 );
#275 = CARTESIAN_POINT( '', ( 2.95850000000000, 0.000000000000000, 0.000000000000000 ) );
#276 = AXIS2_PLACEMENT_3D( '', #300, #301, #302 );
#277 = COLOUR_RGB( '', 0.200000002980232, 0.200000002980232, 0.200000002980232 );
#278 = CARTESIAN_POINT( '', ( 7.22093991504429, 0.000000000000000, 0.000000000000000 ) );
#279 = AXIS2_PLACEMENT_3D( '', #303, #304, #305 );
#280 = COLOUR_RGB( '', 0.200000002980232, 0.200000002980232, 0.200000002980232 );
#281 = CARTESIAN_POINT( '', ( 15.0173782132331, 0.000000000000000, 26.5396925876503 ) );
#282 = AXIS2_PLACEMENT_3D( '', #306, #307, #308 );
#283 = CARTESIAN_POINT( '', ( -14.2099037126718, 0.000000000000000, 27.9382794484386 ) );
#284 = AXIS2_PLACEMENT_3D( '', #309, #310, #311 );
#285 = COLOUR_RGB( '', 0.200000002980232, 0.200000002980232, 0.200000002980232 );
#286 = CARTESIAN_POINT( '', ( 7.64723552768420, 0.000000000000000, 0.238710791183469 ) );
#287 = AXIS2_PLACEMENT_3D( '', #312, #313, #314 );
#288 = COLOUR_RGB( '', 0.200000002980232, 0.200000002980232, 0.200000002980232 );
#289 = CARTESIAN_POINT( '', ( 0.000000000000000, -2.45850000000000, 25.0000000000000 ) );
#290 = AXIS2_PLACEMENT_3D( '', #315, #316, #317 );
#291 = COLOUR_RGB( '', 0.752941191196442, 0.752941191196442, 0.752941191196442 );
#292 = CARTESIAN_POINT( '', ( 0.000000000000000, 2.45850000000000, 22.0000000000000 ) );
#293 = AXIS2_PLACEMENT_3D( '', #318, #319, #320 );
#294 = COLOUR_RGB( '', 0.200000002980232, 0.200000002980232, 0.200000002980232 );
#295 = COLOUR_RGB( '', 0.200000002980232, 0.200000002980232, 0.200000002980232 );
#296 = COLOUR_RGB( '', 0.200000002980232, 0.200000002980232, 0.200000002980232 );
#297 = CARTESIAN_POINT( '', ( 0.000000000000000, 0.000000000000000, 0.500000000000000 ) );
#298 = DIRECTION( '', ( 0.000000000000000, 0.000000000000000, 1.00000000000000 ) );
#299 = DIRECTION( '', ( 1.00000000000000, 0.000000000000000, 0.000000000000000 ) );
#300 = CARTESIAN_POINT( '', ( 0.000000000000000, 0.000000000000000, 0.000000000000000 ) );
#301 = DIRECTION( '', ( 0.000000000000000, 0.000000000000000, 1.00000000000000 ) );
#302 = DIRECTION( '', ( 1.00000000000000, 0.000000000000000, 0.000000000000000 ) );
#303 = CARTESIAN_POINT( '', ( 0.000000000000000, 0.000000000000000, 0.000000000000000 ) );
#304 = DIRECTION( '', ( 0.000000000000000, 0.000000000000000, 1.00000000000000 ) );
#305 = DIRECTION( '', ( 1.00000000000000, 0.000000000000000, 0.000000000000000 ) );
#306 = CARTESIAN_POINT( '', ( 0.000000000000000, 0.000000000000000, 26.5396925876503 ) );
#307 = DIRECTION( '', ( 0.000000000000000, 0.000000000000000, 1.00000000000000 ) );
#308 = DIRECTION( '', ( 1.00000000000000, 0.000000000000000, 0.000000000000000 ) );
#309 = CARTESIAN_POINT( '', ( 0.000000000000000, 0.000000000000000, 27.9382794484386 ) );
#310 = DIRECTION( '', ( 0.000000000000000, 0.000000000000000, -1.00000000000000 ) );
#311 = DIRECTION( '', ( -1.00000000000000, 0.000000000000000, 0.000000000000000 ) );
#312 = CARTESIAN_POINT( '', ( 0.000000000000000, 0.000000000000000, 0.238710791183469 ) );
#313 = DIRECTION( '', ( 0.000000000000000, 0.000000000000000, 1.00000000000000 ) );
#314 = DIRECTION( '', ( 1.00000000000000, 0.000000000000000, 0.000000000000000 ) );
#315 = CARTESIAN_POINT( '', ( 0.000000000000000, 0.000000000000000, 25.0000000000000 ) );
#316 = DIRECTION( '', ( 0.000000000000000, 0.000000000000000, 1.00000000000000 ) );
#317 = DIRECTION( '', ( 0.000000000000000, -1.00000000000000, 0.000000000000000 ) );
#318 = CARTESIAN_POINT( '', ( 0.000000000000000, 0.000000000000000, 22.0000000000000 ) );
#319 = DIRECTION( '', ( 0.000000000000000, 0.000000000000000, -1.00000000000000 ) );
#320 = DIRECTION( '', ( 0.000000000000000, 1.00000000000000, 0.000000000000000 ) );
ENDSEC;
END-ISO-10303-21;
