ISO-10303-21;
HEADER;
FILE_DESCRIPTION( ( 'Unknown' ), '1' );
FILE_NAME( 'E:/98-Dis_3D_per_controllo/ZP/6327020_ZP24_M04x10/6327020_ZP24_M04x10.stp', 'Unknown', ( 'Unknown' ), ( 'Unknown' ), 'PSStep 11.0', 'Unknown', '  ' );
FILE_SCHEMA( ( 'AUTOMOTIVE_DESIGN { 1 0 10303 214 1 1 1 1 }' ) );
ENDSEC;
DATA;
#1 = MECHANICAL_DESIGN_GEOMETRIC_PRESENTATION_REPRESENTATION( ' ', ( #10, #11, #12, #13, #14, #15, #16, #17, #18, #19, #20, #21, #22, #23, #24, #25, #26 ), #6 );
#2 = PRODUCT_DEFINITION_CONTEXT( '', #27, 'design' );
#3 = APPLICATION_PROTOCOL_DEFINITION( 'INTERNATIONAL STANDARD', 'automotive_design', 2001, #27 );
#4 = PRODUCT_CATEGORY_RELATIONSHIP( 'NONE', 'NONE', #28, #29 );
#5 = SHAPE_DEFINITION_REPRESENTATION( #30, #31 );
#6 =  ( GEOMETRIC_REPRESENTATION_CONTEXT( 3 )GLOBAL_UNCERTAINTY_ASSIGNED_CONTEXT( ( #34 ) )GLOBAL_UNIT_ASSIGNED_CONTEXT( ( #36, #37, #38 ) )REPRESENTATION_CONTEXT( 'NONE', 'WORKSPACE' ) );
#10 = STYLED_ITEM( '', ( #40 ), #41 );
#11 = STYLED_ITEM( '', ( #42 ), #43 );
#12 = STYLED_ITEM( '', ( #44 ), #45 );
#13 = STYLED_ITEM( '', ( #46 ), #47 );
#14 = STYLED_ITEM( '', ( #48 ), #49 );
#15 = STYLED_ITEM( '', ( #50 ), #51 );
#16 = STYLED_ITEM( '', ( #52 ), #53 );
#17 = STYLED_ITEM( '', ( #54 ), #55 );
#18 = STYLED_ITEM( '', ( #56 ), #57 );
#19 = STYLED_ITEM( '', ( #58 ), #59 );
#20 = STYLED_ITEM( '', ( #60 ), #61 );
#21 = STYLED_ITEM( '', ( #62 ), #63 );
#22 = STYLED_ITEM( '', ( #64 ), #65 );
#23 = STYLED_ITEM( '', ( #66 ), #67 );
#24 = STYLED_ITEM( '', ( #68 ), #69 );
#25 = STYLED_ITEM( '', ( #70 ), #71 );
#26 = STYLED_ITEM( '', ( #72 ), #73 );
#27 = APPLICATION_CONTEXT( 'core data for automotive mechanical design processes' );
#28 = PRODUCT_CATEGORY( 'part', 'NONE' );
#29 = PRODUCT_RELATED_PRODUCT_CATEGORY( 'detail', ' ', ( #74 ) );
#30 = PRODUCT_DEFINITION_SHAPE( 'NONE', 'NONE', #75 );
#31 = ADVANCED_BREP_SHAPE_REPRESENTATION( '6327020', ( #76, #77 ), #6 );
#34 = UNCERTAINTY_MEASURE_WITH_UNIT( LENGTH_MEASURE( 0.00100000000000000 ), #36, '', '' );
#36 =  ( CONVERSION_BASED_UNIT( 'MILLIMETRE', #80 )LENGTH_UNIT(  )NAMED_UNIT( #83 ) );
#37 =  ( NAMED_UNIT( #85 )PLANE_ANGLE_UNIT(  )SI_UNIT( $, .RADIAN. ) );
#38 =  ( NAMED_UNIT( #85 )SI_UNIT( $, .STERADIAN. )SOLID_ANGLE_UNIT(  ) );
#40 = PRESENTATION_STYLE_ASSIGNMENT( ( #91 ) );
#41 = ADVANCED_FACE( '', ( #92, #93 ), #94, .F. );
#42 = PRESENTATION_STYLE_ASSIGNMENT( ( #95 ) );
#43 = ADVANCED_FACE( '', ( #96, #97 ), #98, .F. );
#44 = PRESENTATION_STYLE_ASSIGNMENT( ( #99 ) );
#45 = ADVANCED_FACE( '', ( #100 ), #101, .F. );
#46 = PRESENTATION_STYLE_ASSIGNMENT( ( #102 ) );
#47 = ADVANCED_FACE( '', ( #103, #104 ), #105, .F. );
#48 = PRESENTATION_STYLE_ASSIGNMENT( ( #106 ) );
#49 = ADVANCED_FACE( '', ( #107 ), #108, .T. );
#50 = PRESENTATION_STYLE_ASSIGNMENT( ( #109 ) );
#51 = ADVANCED_FACE( '', ( #110, #111 ), #112, .F. );
#52 = PRESENTATION_STYLE_ASSIGNMENT( ( #113 ) );
#53 = ADVANCED_FACE( '', ( #114, #115 ), #116, .T. );
#54 = PRESENTATION_STYLE_ASSIGNMENT( ( #117 ) );
#55 = ADVANCED_FACE( '', ( #118, #119 ), #120, .T. );
#56 = PRESENTATION_STYLE_ASSIGNMENT( ( #121 ) );
#57 = ADVANCED_FACE( '', ( #122, #123 ), #124, .T. );
#58 = PRESENTATION_STYLE_ASSIGNMENT( ( #125 ) );
#59 = ADVANCED_FACE( '', ( #126, #127 ), #128, .T. );
#60 = PRESENTATION_STYLE_ASSIGNMENT( ( #129 ) );
#61 = ADVANCED_FACE( '', ( #130, #131 ), #132, .F. );
#62 = PRESENTATION_STYLE_ASSIGNMENT( ( #133 ) );
#63 = ADVANCED_FACE( '', ( #134, #135 ), #136, .T. );
#64 = PRESENTATION_STYLE_ASSIGNMENT( ( #137 ) );
#65 = ADVANCED_FACE( '', ( #138, #139 ), #140, .F. );
#66 = PRESENTATION_STYLE_ASSIGNMENT( ( #141 ) );
#67 = ADVANCED_FACE( '', ( #142, #143 ), #144, .T. );
#68 = PRESENTATION_STYLE_ASSIGNMENT( ( #145 ) );
#69 = ADVANCED_FACE( '', ( #146, #147 ), #148, .T. );
#70 = PRESENTATION_STYLE_ASSIGNMENT( ( #149 ) );
#71 = ADVANCED_FACE( '', ( #150, #151 ), #152, .F. );
#72 = PRESENTATION_STYLE_ASSIGNMENT( ( #153 ) );
#73 = ADVANCED_FACE( '', ( #154, #155 ), #156, .T. );
#74 = PRODUCT( '6327020', '6327020', 'PART-6327020-DESC', ( #157 ) );
#75 = PRODUCT_DEFINITION( 'NONE', 'NONE', #158, #2 );
#76 = BREP_WITH_VOIDS( '6327020', #159, ( #160 ) );
#77 = AXIS2_PLACEMENT_3D( '', #161, #162, #163 );
#80 = LENGTH_MEASURE_WITH_UNIT( LENGTH_MEASURE( 1.00000000000000 ), #164 );
#83 = DIMENSIONAL_EXPONENTS( 1.00000000000000, 0.000000000000000, 0.000000000000000, 0.000000000000000, 0.000000000000000, 0.000000000000000, 0.000000000000000 );
#85 = DIMENSIONAL_EXPONENTS( 0.000000000000000, 0.000000000000000, 0.000000000000000, 0.000000000000000, 0.000000000000000, 0.000000000000000, 0.000000000000000 );
#91 = SURFACE_STYLE_USAGE( .BOTH., #165 );
#92 = FACE_BOUND( '', #166, .T. );
#93 = FACE_OUTER_BOUND( '', #167, .T. );
#94 = PLANE( '', #168 );
#95 = SURFACE_STYLE_USAGE( .BOTH., #169 );
#96 = FACE_OUTER_BOUND( '', #170, .T. );
#97 = FACE_BOUND( '', #171, .T. );
#98 = PLANE( '', #172 );
#99 = SURFACE_STYLE_USAGE( .BOTH., #173 );
#100 = FACE_OUTER_BOUND( '', #174, .T. );
#101 = PLANE( '', #175 );
#102 = SURFACE_STYLE_USAGE( .BOTH., #176 );
#103 = FACE_OUTER_BOUND( '', #177, .T. );
#104 = FACE_OUTER_BOUND( '', #178, .T. );
#105 = TOROIDAL_SURFACE( '', #179, 2.20000000000000, 0.200000000000000 );
#106 = SURFACE_STYLE_USAGE( .BOTH., #180 );
#107 = FACE_OUTER_BOUND( '', #181, .T. );
#108 = SPHERICAL_SURFACE( '', #182, 20.7604166666667 );
#109 = SURFACE_STYLE_USAGE( .BOTH., #183 );
#110 = FACE_BOUND( '', #184, .T. );
#111 = FACE_OUTER_BOUND( '', #185, .T. );
#112 = PLANE( '', #186 );
#113 = SURFACE_STYLE_USAGE( .BOTH., #187 );
#114 = FACE_OUTER_BOUND( '', #188, .T. );
#115 = FACE_OUTER_BOUND( '', #189, .T. );
#116 = TOROIDAL_SURFACE( '', #190, 12.3007924589371, 0.200000000000000 );
#117 = SURFACE_STYLE_USAGE( .BOTH., #191 );
#118 = FACE_OUTER_BOUND( '', #192, .T. );
#119 = FACE_OUTER_BOUND( '', #193, .T. );
#120 = CYLINDRICAL_SURFACE( '', #194, 2.00000000000000 );
#121 = SURFACE_STYLE_USAGE( .BOTH., #195 );
#122 = FACE_BOUND( '', #196, .T. );
#123 = FACE_OUTER_BOUND( '', #197, .T. );
#124 = CONICAL_SURFACE( '', #198, 13.0000000000000, 0.0890495826344968 );
#125 = SURFACE_STYLE_USAGE( .BOTH., #199 );
#126 = FACE_BOUND( '', #200, .T. );
#127 = FACE_OUTER_BOUND( '', #201, .T. );
#128 = CONICAL_SURFACE( '', #202, 1.20000000000000, 0.785398163397448 );
#129 = SURFACE_STYLE_USAGE( .BOTH., #203 );
#130 = FACE_OUTER_BOUND( '', #204, .T. );
#131 = FACE_BOUND( '', #205, .T. );
#132 = PLANE( '', #206 );
#133 = SURFACE_STYLE_USAGE( .BOTH., #207 );
#134 = FACE_OUTER_BOUND( '', #208, .T. );
#135 = FACE_OUTER_BOUND( '', #209, .T. );
#136 = TOROIDAL_SURFACE( '', #210, 7.00000000000000, 1.00000000000000 );
#137 = SURFACE_STYLE_USAGE( .BOTH., #211 );
#138 = FACE_OUTER_BOUND( '', #212, .T. );
#139 = FACE_OUTER_BOUND( '', #213, .T. );
#140 = TOROIDAL_SURFACE( '', #214, 8.50000000000000, 0.500000000000000 );
#141 = SURFACE_STYLE_USAGE( .BOTH., #215 );
#142 = FACE_OUTER_BOUND( '', #216, .T. );
#143 = FACE_OUTER_BOUND( '', #217, .T. );
#144 = TOROIDAL_SURFACE( '', #218, 12.8007924589371, 0.200000000000000 );
#145 = SURFACE_STYLE_USAGE( .BOTH., #219 );
#146 = FACE_OUTER_BOUND( '', #220, .T. );
#147 = FACE_OUTER_BOUND( '', #221, .T. );
#148 = CYLINDRICAL_SURFACE( '', #222, 8.00000000000000 );
#149 = SURFACE_STYLE_USAGE( .BOTH., #223 );
#150 = FACE_OUTER_BOUND( '', #224, .T. );
#151 = FACE_OUTER_BOUND( '', #225, .T. );
#152 = CYLINDRICAL_SURFACE( '', #226, 2.00000000000000 );
#153 = SURFACE_STYLE_USAGE( .BOTH., #227 );
#154 = FACE_BOUND( '', #228, .T. );
#155 = FACE_OUTER_BOUND( '', #229, .T. );
#156 = CONICAL_SURFACE( '', #230, 2.00000000000000, 0.785398163397451 );
#157 = PRODUCT_CONTEXT( '', #27, 'mechanical' );
#158 = PRODUCT_DEFINITION_FORMATION_WITH_SPECIFIED_SOURCE( ' ', 'NONE', #74, .NOT_KNOWN. );
#159 = CLOSED_SHELL( '', ( #61, #49, #47, #51, #53, #57, #67, #43, #65, #69, #63, #73, #55, #45 ) );
#160 = ORIENTED_CLOSED_SHELL( '', *, #231, .T. );
#161 = CARTESIAN_POINT( '', ( 0.000000000000000, 0.000000000000000, 0.000000000000000 ) );
#162 = DIRECTION( '', ( 0.000000000000000, 0.000000000000000, 1.00000000000000 ) );
#163 = DIRECTION( '', ( 1.00000000000000, 0.000000000000000, 0.000000000000000 ) );
#164 =  ( LENGTH_UNIT(  )NAMED_UNIT( #83 )SI_UNIT( .MILLI., .METRE. ) );
#165 = SURFACE_SIDE_STYLE( '', ( #233 ) );
#166 = EDGE_LOOP( '', ( #234 ) );
#167 = EDGE_LOOP( '', ( #235 ) );
#168 = AXIS2_PLACEMENT_3D( '', #236, #237, #238 );
#169 = SURFACE_SIDE_STYLE( '', ( #239 ) );
#170 = EDGE_LOOP( '', ( #240 ) );
#171 = EDGE_LOOP( '', ( #241 ) );
#172 = AXIS2_PLACEMENT_3D( '', #242, #243, #244 );
#173 = SURFACE_SIDE_STYLE( '', ( #245 ) );
#174 = EDGE_LOOP( '', ( #246 ) );
#175 = AXIS2_PLACEMENT_3D( '', #247, #248, #249 );
#176 = SURFACE_SIDE_STYLE( '', ( #250 ) );
#177 = EDGE_LOOP( '', ( #251 ) );
#178 = EDGE_LOOP( '', ( #252 ) );
#179 = AXIS2_PLACEMENT_3D( '', #253, #254, #255 );
#180 = SURFACE_SIDE_STYLE( '', ( #256 ) );
#181 = EDGE_LOOP( '', ( #257 ) );
#182 = AXIS2_PLACEMENT_3D( '', #258, #259, #260 );
#183 = SURFACE_SIDE_STYLE( '', ( #261 ) );
#184 = EDGE_LOOP( '', ( #262 ) );
#185 = EDGE_LOOP( '', ( #263 ) );
#186 = AXIS2_PLACEMENT_3D( '', #264, #265, #266 );
#187 = SURFACE_SIDE_STYLE( '', ( #267 ) );
#188 = EDGE_LOOP( '', ( #268 ) );
#189 = EDGE_LOOP( '', ( #269 ) );
#190 = AXIS2_PLACEMENT_3D( '', #270, #271, #272 );
#191 = SURFACE_SIDE_STYLE( '', ( #273 ) );
#192 = EDGE_LOOP( '', ( #274 ) );
#193 = EDGE_LOOP( '', ( #275 ) );
#194 = AXIS2_PLACEMENT_3D( '', #276, #277, #278 );
#195 = SURFACE_SIDE_STYLE( '', ( #279 ) );
#196 = EDGE_LOOP( '', ( #280 ) );
#197 = EDGE_LOOP( '', ( #281 ) );
#198 = AXIS2_PLACEMENT_3D( '', #282, #283, #284 );
#199 = SURFACE_SIDE_STYLE( '', ( #285 ) );
#200 = EDGE_LOOP( '', ( #286 ) );
#201 = EDGE_LOOP( '', ( #287 ) );
#202 = AXIS2_PLACEMENT_3D( '', #288, #289, #290 );
#203 = SURFACE_SIDE_STYLE( '', ( #291 ) );
#204 = EDGE_LOOP( '', ( #292 ) );
#205 = EDGE_LOOP( '', ( #293 ) );
#206 = AXIS2_PLACEMENT_3D( '', #294, #295, #296 );
#207 = SURFACE_SIDE_STYLE( '', ( #297 ) );
#208 = EDGE_LOOP( '', ( #298 ) );
#209 = EDGE_LOOP( '', ( #299 ) );
#210 = AXIS2_PLACEMENT_3D( '', #300, #301, #302 );
#211 = SURFACE_SIDE_STYLE( '', ( #303 ) );
#212 = EDGE_LOOP( '', ( #304 ) );
#213 = EDGE_LOOP( '', ( #305 ) );
#214 = AXIS2_PLACEMENT_3D( '', #306, #307, #308 );
#215 = SURFACE_SIDE_STYLE( '', ( #309 ) );
#216 = EDGE_LOOP( '', ( #310 ) );
#217 = EDGE_LOOP( '', ( #311 ) );
#218 = AXIS2_PLACEMENT_3D( '', #312, #313, #314 );
#219 = SURFACE_SIDE_STYLE( '', ( #315 ) );
#220 = EDGE_LOOP( '', ( #316 ) );
#221 = EDGE_LOOP( '', ( #317 ) );
#222 = AXIS2_PLACEMENT_3D( '', #318, #319, #320 );
#223 = SURFACE_SIDE_STYLE( '', ( #321 ) );
#224 = EDGE_LOOP( '', ( #322 ) );
#225 = EDGE_LOOP( '', ( #323 ) );
#226 = AXIS2_PLACEMENT_3D( '', #324, #325, #326 );
#227 = SURFACE_SIDE_STYLE( '', ( #327 ) );
#228 = EDGE_LOOP( '', ( #328 ) );
#229 = EDGE_LOOP( '', ( #329 ) );
#230 = AXIS2_PLACEMENT_3D( '', #330, #331, #332 );
#231 = CLOSED_SHELL( '', ( #41, #59, #71 ) );
#233 = SURFACE_STYLE_FILL_AREA( #333 );
#234 = ORIENTED_EDGE( '', *, *, #334, .T. );
#235 = ORIENTED_EDGE( '', *, *, #335, .F. );
#236 = CARTESIAN_POINT( '', ( 0.000000000000000, 0.000000000000000, 6.00000000000000 ) );
#237 = DIRECTION( '', ( 0.000000000000000, 0.000000000000000, 1.00000000000000 ) );
#238 = DIRECTION( '', ( 1.00000000000000, 0.000000000000000, 0.000000000000000 ) );
#239 = SURFACE_STYLE_FILL_AREA( #336 );
#240 = ORIENTED_EDGE( '', *, *, #337, .F. );
#241 = ORIENTED_EDGE( '', *, *, #338, .T. );
#242 = CARTESIAN_POINT( '', ( 5.20457700374511E-016, 8.50000000000000, 6.00000000000000 ) );
#243 = DIRECTION( '', ( 0.000000000000000, 0.000000000000000, 1.00000000000000 ) );
#244 = DIRECTION( '', ( 1.00000000000000, 0.000000000000000, 0.000000000000000 ) );
#245 = SURFACE_STYLE_FILL_AREA( #339 );
#246 = ORIENTED_EDGE( '', *, *, #340, .T. );
#247 = CARTESIAN_POINT( '', ( 0.000000000000000, 0.000000000000000, -10.0000000000000 ) );
#248 = DIRECTION( '', ( 0.000000000000000, 0.000000000000000, 1.00000000000000 ) );
#249 = DIRECTION( '', ( 1.00000000000000, 0.000000000000000, 0.000000000000000 ) );
#250 = SURFACE_STYLE_FILL_AREA( #341 );
#251 = ORIENTED_EDGE( '', *, *, #342, .F. );
#252 = ORIENTED_EDGE( '', *, *, #343, .F. );
#253 = CARTESIAN_POINT( '', ( 0.000000000000000, 0.000000000000000, -0.199999999999996 ) );
#254 = DIRECTION( '', ( 0.000000000000000, 0.000000000000000, 1.00000000000000 ) );
#255 = DIRECTION( '', ( 1.00000000000000, 0.000000000000000, 0.000000000000000 ) );
#256 = SURFACE_STYLE_FILL_AREA( #344 );
#257 = ORIENTED_EDGE( '', *, *, #345, .T. );
#258 = CARTESIAN_POINT( '', ( 5.31088347701510E-032, 8.67361737988404E-016, -5.76041666666667 ) );
#259 = DIRECTION( '', ( 0.000000000000000, 0.000000000000000, 1.00000000000000 ) );
#260 = DIRECTION( '', ( 6.12303176911189E-017, 1.00000000000000, 0.000000000000000 ) );
#261 = SURFACE_STYLE_FILL_AREA( #346 );
#262 = ORIENTED_EDGE( '', *, *, #345, .F. );
#263 = ORIENTED_EDGE( '', *, *, #347, .T. );
#264 = CARTESIAN_POINT( '', ( 7.53181430113238E-016, 12.3007924589371, 12.0000000000000 ) );
#265 = DIRECTION( '', ( 0.000000000000000, 0.000000000000000, -1.00000000000000 ) );
#266 = DIRECTION( '', ( -1.00000000000000, 0.000000000000000, 0.000000000000000 ) );
#267 = SURFACE_STYLE_FILL_AREA( #348 );
#268 = ORIENTED_EDGE( '', *, *, #347, .F. );
#269 = ORIENTED_EDGE( '', *, *, #349, .T. );
#270 = CARTESIAN_POINT( '', ( 0.000000000000000, 0.000000000000000, 11.8000000000000 ) );
#271 = DIRECTION( '', ( 0.000000000000000, 0.000000000000000, 1.00000000000000 ) );
#272 = DIRECTION( '', ( 1.00000000000000, 0.000000000000000, 0.000000000000000 ) );
#273 = SURFACE_STYLE_FILL_AREA( #350 );
#274 = ORIENTED_EDGE( '', *, *, #342, .T. );
#275 = ORIENTED_EDGE( '', *, *, #351, .T. );
#276 = CARTESIAN_POINT( '', ( 0.000000000000000, 0.000000000000000, -67.0000000000000 ) );
#277 = DIRECTION( '', ( -0.000000000000000, -0.000000000000000, -1.00000000000000 ) );
#278 = DIRECTION( '', ( 1.00000000000000, 0.000000000000000, 0.000000000000000 ) );
#279 = SURFACE_STYLE_FILL_AREA( #352 );
#280 = ORIENTED_EDGE( '', *, *, #349, .F. );
#281 = ORIENTED_EDGE( '', *, *, #353, .T. );
#282 = CARTESIAN_POINT( '', ( -1.43568159340735E-043, -2.34472341079424E-027, 6.21778638759486 ) );
#283 = DIRECTION( '', ( -0.000000000000000, 0.000000000000000, -1.00000000000000 ) );
#284 = DIRECTION( '', ( -1.00000000000000, 0.000000000000000, 0.000000000000000 ) );
#285 = SURFACE_STYLE_FILL_AREA( #354 );
#286 = ORIENTED_EDGE( '', *, *, #334, .F. );
#287 = ORIENTED_EDGE( '', *, *, #355, .F. );
#288 = CARTESIAN_POINT( '', ( 0.000000000000000, 0.000000000000000, 6.00000000000000 ) );
#289 = DIRECTION( '', ( -0.000000000000000, 0.000000000000000, -1.00000000000000 ) );
#290 = DIRECTION( '', ( -1.00000000000000, 0.000000000000000, 0.000000000000000 ) );
#291 = SURFACE_STYLE_FILL_AREA( #356 );
#292 = ORIENTED_EDGE( '', *, *, #357, .F. );
#293 = ORIENTED_EDGE( '', *, *, #343, .T. );
#294 = CARTESIAN_POINT( '', ( 5.31088347701510E-032, 8.67361737988404E-016, 4.03670714222027E-015 ) );
#295 = DIRECTION( '', ( 0.000000000000000, 0.000000000000000, 1.00000000000000 ) );
#296 = DIRECTION( '', ( 1.00000000000000, 0.000000000000000, 0.000000000000000 ) );
#297 = SURFACE_STYLE_FILL_AREA( #358 );
#298 = ORIENTED_EDGE( '', *, *, #359, .F. );
#299 = ORIENTED_EDGE( '', *, *, #357, .T. );
#300 = CARTESIAN_POINT( '', ( 0.000000000000000, 0.000000000000000, 1.00000000000000 ) );
#301 = DIRECTION( '', ( 0.000000000000000, 0.000000000000000, 1.00000000000000 ) );
#302 = DIRECTION( '', ( 1.00000000000000, 0.000000000000000, 0.000000000000000 ) );
#303 = SURFACE_STYLE_FILL_AREA( #360 );
#304 = ORIENTED_EDGE( '', *, *, #338, .F. );
#305 = ORIENTED_EDGE( '', *, *, #361, .T. );
#306 = CARTESIAN_POINT( '', ( 0.000000000000000, 0.000000000000000, 5.50000000000000 ) );
#307 = DIRECTION( '', ( 0.000000000000000, 0.000000000000000, 1.00000000000000 ) );
#308 = DIRECTION( '', ( 1.00000000000000, 0.000000000000000, 0.000000000000000 ) );
#309 = SURFACE_STYLE_FILL_AREA( #362 );
#310 = ORIENTED_EDGE( '', *, *, #353, .F. );
#311 = ORIENTED_EDGE( '', *, *, #337, .T. );
#312 = CARTESIAN_POINT( '', ( 0.000000000000000, 0.000000000000000, 6.20000000000000 ) );
#313 = DIRECTION( '', ( 0.000000000000000, 0.000000000000000, 1.00000000000000 ) );
#314 = DIRECTION( '', ( 1.00000000000000, 0.000000000000000, 0.000000000000000 ) );
#315 = SURFACE_STYLE_FILL_AREA( #363 );
#316 = ORIENTED_EDGE( '', *, *, #361, .F. );
#317 = ORIENTED_EDGE( '', *, *, #359, .T. );
#318 = CARTESIAN_POINT( '', ( -1.43568159340735E-043, -2.34472341079424E-027, 14.0000000000000 ) );
#319 = DIRECTION( '', ( -0.000000000000000, -0.000000000000000, -1.00000000000000 ) );
#320 = DIRECTION( '', ( 1.00000000000000, 0.000000000000000, 0.000000000000000 ) );
#321 = SURFACE_STYLE_FILL_AREA( #364 );
#322 = ORIENTED_EDGE( '', *, *, #355, .T. );
#323 = ORIENTED_EDGE( '', *, *, #335, .T. );
#324 = CARTESIAN_POINT( '', ( 0.000000000000000, 0.000000000000000, 54.0000000000000 ) );
#325 = DIRECTION( '', ( -0.000000000000000, -0.000000000000000, -1.00000000000000 ) );
#326 = DIRECTION( '', ( 1.00000000000000, 0.000000000000000, 0.000000000000000 ) );
#327 = SURFACE_STYLE_FILL_AREA( #365 );
#328 = ORIENTED_EDGE( '', *, *, #340, .F. );
#329 = ORIENTED_EDGE( '', *, *, #351, .F. );
#330 = CARTESIAN_POINT( '', ( 0.000000000000000, 0.000000000000000, -9.00000000000000 ) );
#331 = DIRECTION( '', ( -0.000000000000000, -0.000000000000000, 1.00000000000000 ) );
#332 = DIRECTION( '', ( 1.00000000000000, 0.000000000000000, 0.000000000000000 ) );
#333 = FILL_AREA_STYLE( '', ( #366 ) );
#334 = EDGE_CURVE( '', #367, #367, #368, .F. );
#335 = EDGE_CURVE( '', #369, #369, #370, .T. );
#336 = FILL_AREA_STYLE( '', ( #371 ) );
#337 = EDGE_CURVE( '', #372, #372, #373, .T. );
#338 = EDGE_CURVE( '', #374, #374, #375, .T. );
#339 = FILL_AREA_STYLE( '', ( #376 ) );
#340 = EDGE_CURVE( '', #377, #377, #378, .F. );
#341 = FILL_AREA_STYLE( '', ( #379 ) );
#342 = EDGE_CURVE( '', #380, #380, #381, .F. );
#343 = EDGE_CURVE( '', #382, #382, #383, .T. );
#344 = FILL_AREA_STYLE( '', ( #384 ) );
#345 = EDGE_CURVE( '', #385, #385, #386, .T. );
#346 = FILL_AREA_STYLE( '', ( #387 ) );
#347 = EDGE_CURVE( '', #388, #388, #389, .T. );
#348 = FILL_AREA_STYLE( '', ( #390 ) );
#349 = EDGE_CURVE( '', #391, #391, #392, .T. );
#350 = FILL_AREA_STYLE( '', ( #393 ) );
#351 = EDGE_CURVE( '', #394, #394, #395, .T. );
#352 = FILL_AREA_STYLE( '', ( #396 ) );
#353 = EDGE_CURVE( '', #397, #397, #398, .T. );
#354 = FILL_AREA_STYLE( '', ( #399 ) );
#355 = EDGE_CURVE( '', #400, #400, #401, .T. );
#356 = FILL_AREA_STYLE( '', ( #402 ) );
#357 = EDGE_CURVE( '', #403, #403, #404, .T. );
#358 = FILL_AREA_STYLE( '', ( #405 ) );
#359 = EDGE_CURVE( '', #406, #406, #407, .T. );
#360 = FILL_AREA_STYLE( '', ( #408 ) );
#361 = EDGE_CURVE( '', #409, #409, #410, .T. );
#362 = FILL_AREA_STYLE( '', ( #411 ) );
#363 = FILL_AREA_STYLE( '', ( #412 ) );
#364 = FILL_AREA_STYLE( '', ( #413 ) );
#365 = FILL_AREA_STYLE( '', ( #414 ) );
#366 = FILL_AREA_STYLE_COLOUR( '', #415 );
#367 = VERTEX_POINT( '', #416 );
#368 = CIRCLE( '', #417, 1.20000000000000 );
#369 = VERTEX_POINT( '', #418 );
#370 = CIRCLE( '', #419, 2.00000000000000 );
#371 = FILL_AREA_STYLE_COLOUR( '', #420 );
#372 = VERTEX_POINT( '', #421 );
#373 = CIRCLE( '', #422, 12.8007924589371 );
#374 = VERTEX_POINT( '', #423 );
#375 = CIRCLE( '', #424, 8.50000000000000 );
#376 = FILL_AREA_STYLE_COLOUR( '', #425 );
#377 = VERTEX_POINT( '', #426 );
#378 = CIRCLE( '', #427, 1.00000000000000 );
#379 = FILL_AREA_STYLE_COLOUR( '', #428 );
#380 = VERTEX_POINT( '', #429 );
#381 = CIRCLE( '', #430, 2.00000000000000 );
#382 = VERTEX_POINT( '', #431 );
#383 = CIRCLE( '', #432, 2.20000000000000 );
#384 = FILL_AREA_STYLE_COLOUR( '', #433 );
#385 = VERTEX_POINT( '', #434 );
#386 = CIRCLE( '', #435, 10.7500000000000 );
#387 = FILL_AREA_STYLE_COLOUR( '', #436 );
#388 = VERTEX_POINT( '', #437 );
#389 = CIRCLE( '', #438, 12.3007924589371 );
#390 = FILL_AREA_STYLE_COLOUR( '', #439 );
#391 = VERTEX_POINT( '', #440 );
#392 = CIRCLE( '', #441, 12.5000000000000 );
#393 = FILL_AREA_STYLE_COLOUR( '', #442 );
#394 = VERTEX_POINT( '', #443 );
#395 = CIRCLE( '', #444, 2.00000000000000 );
#396 = FILL_AREA_STYLE_COLOUR( '', #445 );
#397 = VERTEX_POINT( '', #446 );
#398 = CIRCLE( '', #447, 13.0000000000000 );
#399 = FILL_AREA_STYLE_COLOUR( '', #448 );
#400 = VERTEX_POINT( '', #449 );
#401 = CIRCLE( '', #450, 2.00000000000000 );
#402 = FILL_AREA_STYLE_COLOUR( '', #451 );
#403 = VERTEX_POINT( '', #452 );
#404 = CIRCLE( '', #453, 7.00000000000000 );
#405 = FILL_AREA_STYLE_COLOUR( '', #454 );
#406 = VERTEX_POINT( '', #455 );
#407 = CIRCLE( '', #456, 8.00000000000000 );
#408 = FILL_AREA_STYLE_COLOUR( '', #457 );
#409 = VERTEX_POINT( '', #458 );
#410 = CIRCLE( '', #459, 8.00000000000000 );
#411 = FILL_AREA_STYLE_COLOUR( '', #460 );
#412 = FILL_AREA_STYLE_COLOUR( '', #461 );
#413 = FILL_AREA_STYLE_COLOUR( '', #462 );
#414 = FILL_AREA_STYLE_COLOUR( '', #463 );
#415 = COLOUR_RGB( '', 0.200000002980232, 0.200000002980232, 0.200000002980232 );
#416 = CARTESIAN_POINT( '', ( -1.20000000000000, 0.000000000000000, 6.00000000000000 ) );
#417 = AXIS2_PLACEMENT_3D( '', #464, #465, #466 );
#418 = CARTESIAN_POINT( '', ( 2.00000000000000, 0.000000000000000, 6.00000000000000 ) );
#419 = AXIS2_PLACEMENT_3D( '', #467, #468, #469 );
#420 = COLOUR_RGB( '', 0.200000002980232, 0.200000002980232, 0.200000002980232 );
#421 = CARTESIAN_POINT( '', ( 12.8007924589371, -2.34472341079424E-027, 6.00000000000000 ) );
#422 = AXIS2_PLACEMENT_3D( '', #470, #471, #472 );
#423 = CARTESIAN_POINT( '', ( 8.50000000000000, -2.34472341079424E-027, 6.00000000000000 ) );
#424 = AXIS2_PLACEMENT_3D( '', #473, #474, #475 );
#425 = COLOUR_RGB( '', 0.666666686534882, 0.733333349227905, 0.866666674613953 );
#426 = CARTESIAN_POINT( '', ( 1.00000000000000, 0.000000000000000, -10.0000000000000 ) );
#427 = AXIS2_PLACEMENT_3D( '', #476, #477, #478 );
#428 = COLOUR_RGB( '', 0.666666686534882, 0.733333349227905, 0.866666674613953 );
#429 = CARTESIAN_POINT( '', ( 2.00000000000000, 0.000000000000000, -0.199999999999996 ) );
#430 = AXIS2_PLACEMENT_3D( '', #479, #480, #481 );
#431 = CARTESIAN_POINT( '', ( 2.20000000000000, 0.000000000000000, 5.20417042793042E-015 ) );
#432 = AXIS2_PLACEMENT_3D( '', #482, #483, #484 );
#433 = COLOUR_RGB( '', 0.200000002980232, 0.200000002980232, 0.200000002980232 );
#434 = CARTESIAN_POINT( '', ( 10.7500000000000, -2.34472341079424E-027, 12.0000000000000 ) );
#435 = AXIS2_PLACEMENT_3D( '', #485, #486, #487 );
#436 = COLOUR_RGB( '', 0.200000002980232, 0.200000002980232, 0.200000002980232 );
#437 = CARTESIAN_POINT( '', ( 12.3007924589371, -2.34472341079424E-027, 12.0000000000000 ) );
#438 = AXIS2_PLACEMENT_3D( '', #488, #489, #490 );
#439 = COLOUR_RGB( '', 0.200000002980232, 0.200000002980232, 0.200000002980232 );
#440 = CARTESIAN_POINT( '', ( 12.5000000000000, -2.34472341079424E-027, 11.8177863875949 ) );
#441 = AXIS2_PLACEMENT_3D( '', #491, #492, #493 );
#442 = COLOUR_RGB( '', 0.752941191196442, 0.752941191196442, 0.752941191196442 );
#443 = CARTESIAN_POINT( '', ( 2.00000000000000, 0.000000000000000, -9.00000000000000 ) );
#444 = AXIS2_PLACEMENT_3D( '', #494, #495, #496 );
#445 = COLOUR_RGB( '', 0.200000002980232, 0.200000002980232, 0.200000002980232 );
#446 = CARTESIAN_POINT( '', ( 13.0000000000000, -2.34472341079424E-027, 6.21778638759486 ) );
#447 = AXIS2_PLACEMENT_3D( '', #497, #498, #499 );
#448 = COLOUR_RGB( '', 0.666666686534882, 0.733333349227905, 0.866666674613953 );
#449 = CARTESIAN_POINT( '', ( -2.00000000000000, 0.000000000000000, 5.20000000000000 ) );
#450 = AXIS2_PLACEMENT_3D( '', #500, #501, #502 );
#451 = COLOUR_RGB( '', 0.752941191196442, 0.752941191196442, 0.752941191196442 );
#452 = CARTESIAN_POINT( '', ( 7.00000000000000, -2.34472341079424E-027, 3.46944695195362E-015 ) );
#453 = AXIS2_PLACEMENT_3D( '', #503, #504, #505 );
#454 = COLOUR_RGB( '', 0.200000002980232, 0.200000002980232, 0.200000002980232 );
#455 = CARTESIAN_POINT( '', ( 8.00000000000000, -2.34472341079424E-027, 1.00000000000000 ) );
#456 = AXIS2_PLACEMENT_3D( '', #506, #507, #508 );
#457 = COLOUR_RGB( '', 0.200000002980232, 0.200000002980232, 0.200000002980232 );
#458 = CARTESIAN_POINT( '', ( 8.00000000000000, -2.34472341079424E-027, 5.50000000000000 ) );
#459 = AXIS2_PLACEMENT_3D( '', #509, #510, #511 );
#460 = COLOUR_RGB( '', 0.200000002980232, 0.200000002980232, 0.200000002980232 );
#461 = COLOUR_RGB( '', 0.200000002980232, 0.200000002980232, 0.200000002980232 );
#462 = COLOUR_RGB( '', 0.200000002980232, 0.200000002980232, 0.200000002980232 );
#463 = COLOUR_RGB( '', 0.666666686534882, 0.733333349227905, 0.866666674613953 );
#464 = CARTESIAN_POINT( '', ( 0.000000000000000, 0.000000000000000, 6.00000000000000 ) );
#465 = DIRECTION( '', ( 0.000000000000000, 0.000000000000000, -1.00000000000000 ) );
#466 = DIRECTION( '', ( -1.00000000000000, 0.000000000000000, 0.000000000000000 ) );
#467 = CARTESIAN_POINT( '', ( 0.000000000000000, 0.000000000000000, 6.00000000000000 ) );
#468 = DIRECTION( '', ( 0.000000000000000, 0.000000000000000, 1.00000000000000 ) );
#469 = DIRECTION( '', ( 1.00000000000000, 0.000000000000000, 0.000000000000000 ) );
#470 = CARTESIAN_POINT( '', ( -1.43568159340735E-043, -2.34472341079424E-027, 6.00000000000000 ) );
#471 = DIRECTION( '', ( 0.000000000000000, 0.000000000000000, 1.00000000000000 ) );
#472 = DIRECTION( '', ( 1.00000000000000, 0.000000000000000, 0.000000000000000 ) );
#473 = CARTESIAN_POINT( '', ( -1.43568159340735E-043, -2.34472341079424E-027, 6.00000000000000 ) );
#474 = DIRECTION( '', ( 0.000000000000000, 0.000000000000000, 1.00000000000000 ) );
#475 = DIRECTION( '', ( 1.00000000000000, 0.000000000000000, 0.000000000000000 ) );
#476 = CARTESIAN_POINT( '', ( 0.000000000000000, 0.000000000000000, -10.0000000000000 ) );
#477 = DIRECTION( '', ( 0.000000000000000, 0.000000000000000, 1.00000000000000 ) );
#478 = DIRECTION( '', ( 1.00000000000000, 0.000000000000000, 0.000000000000000 ) );
#479 = CARTESIAN_POINT( '', ( 0.000000000000000, 0.000000000000000, -0.199999999999996 ) );
#480 = DIRECTION( '', ( 0.000000000000000, 0.000000000000000, 1.00000000000000 ) );
#481 = DIRECTION( '', ( 1.00000000000000, 0.000000000000000, 0.000000000000000 ) );
#482 = CARTESIAN_POINT( '', ( 0.000000000000000, 0.000000000000000, 5.20417042793042E-015 ) );
#483 = DIRECTION( '', ( 0.000000000000000, 0.000000000000000, 1.00000000000000 ) );
#484 = DIRECTION( '', ( 1.00000000000000, 0.000000000000000, 0.000000000000000 ) );
#485 = CARTESIAN_POINT( '', ( -1.43568159340735E-043, -2.34472341079424E-027, 12.0000000000000 ) );
#486 = DIRECTION( '', ( 0.000000000000000, 0.000000000000000, 1.00000000000000 ) );
#487 = DIRECTION( '', ( 1.00000000000000, 0.000000000000000, 0.000000000000000 ) );
#488 = CARTESIAN_POINT( '', ( -1.43568159340735E-043, -2.34472341079424E-027, 12.0000000000000 ) );
#489 = DIRECTION( '', ( 0.000000000000000, 0.000000000000000, 1.00000000000000 ) );
#490 = DIRECTION( '', ( 1.00000000000000, 0.000000000000000, 0.000000000000000 ) );
#491 = CARTESIAN_POINT( '', ( -1.43568159340735E-043, -2.34472341079424E-027, 11.8177863875949 ) );
#492 = DIRECTION( '', ( 0.000000000000000, 0.000000000000000, 1.00000000000000 ) );
#493 = DIRECTION( '', ( 1.00000000000000, 0.000000000000000, 0.000000000000000 ) );
#494 = CARTESIAN_POINT( '', ( 0.000000000000000, 0.000000000000000, -9.00000000000000 ) );
#495 = DIRECTION( '', ( 0.000000000000000, 0.000000000000000, 1.00000000000000 ) );
#496 = DIRECTION( '', ( 1.00000000000000, 0.000000000000000, 0.000000000000000 ) );
#497 = CARTESIAN_POINT( '', ( -1.43568159340735E-043, -2.34472341079424E-027, 6.21778638759486 ) );
#498 = DIRECTION( '', ( 0.000000000000000, 0.000000000000000, 1.00000000000000 ) );
#499 = DIRECTION( '', ( 1.00000000000000, 0.000000000000000, 0.000000000000000 ) );
#500 = CARTESIAN_POINT( '', ( 0.000000000000000, 0.000000000000000, 5.20000000000000 ) );
#501 = DIRECTION( '', ( 0.000000000000000, 0.000000000000000, -1.00000000000000 ) );
#502 = DIRECTION( '', ( -1.00000000000000, 0.000000000000000, 0.000000000000000 ) );
#503 = CARTESIAN_POINT( '', ( -1.43568159340735E-043, -2.34472341079424E-027, 3.46944695195362E-015 ) );
#504 = DIRECTION( '', ( 0.000000000000000, 0.000000000000000, 1.00000000000000 ) );
#505 = DIRECTION( '', ( 1.00000000000000, 0.000000000000000, 0.000000000000000 ) );
#506 = CARTESIAN_POINT( '', ( -1.43568159340735E-043, -2.34472341079424E-027, 1.00000000000000 ) );
#507 = DIRECTION( '', ( 0.000000000000000, 0.000000000000000, 1.00000000000000 ) );
#508 = DIRECTION( '', ( 1.00000000000000, 0.000000000000000, 0.000000000000000 ) );
#509 = CARTESIAN_POINT( '', ( -1.43568159340735E-043, -2.34472341079424E-027, 5.50000000000000 ) );
#510 = DIRECTION( '', ( 0.000000000000000, 0.000000000000000, 1.00000000000000 ) );
#511 = DIRECTION( '', ( 1.00000000000000, 0.000000000000000, 0.000000000000000 ) );
ENDSEC;
END-ISO-10303-21;
