ISO-10303-21;
HEADER;
FILE_DESCRIPTION( ( 'Unknown' ), '1' );
FILE_NAME( 'E:/98-Dis_3D_per_controllo/ZP/6327050_ZP15_M04x10/6327050_ZP15_M04x10.stp', 'Unknown', ( 'Unknown' ), ( 'Unknown' ), 'PSStep 11.0', 'Unknown', '  ' );
FILE_SCHEMA( ( 'AUTOMOTIVE_DESIGN { 1 0 10303 214 1 1 1 1 }' ) );
ENDSEC;
DATA;
#1 = MECHANICAL_DESIGN_GEOMETRIC_PRESENTATION_REPRESENTATION( ' ', ( #10, #11, #12, #13, #14, #15, #16, #17, #18, #19, #20, #21, #22, #23, #24, #25, #26 ), #6 );
#2 = PRODUCT_DEFINITION_CONTEXT( '', #27, 'design' );
#3 = APPLICATION_PROTOCOL_DEFINITION( 'INTERNATIONAL STANDARD', 'automotive_design', 2001, #27 );
#4 = PRODUCT_CATEGORY_RELATIONSHIP( 'NONE', 'NONE', #28, #29 );
#5 = SHAPE_DEFINITION_REPRESENTATION( #30, #31 );
#6 =  ( GEOMETRIC_REPRESENTATION_CONTEXT( 3 )GLOBAL_UNCERTAINTY_ASSIGNED_CONTEXT( ( #34 ) )GLOBAL_UNIT_ASSIGNED_CONTEXT( ( #36, #37, #38 ) )REPRESENTATION_CONTEXT( 'NONE', 'WORKSPACE' ) );
#10 = STYLED_ITEM( '', ( #40 ), #41 );
#11 = STYLED_ITEM( '', ( #42 ), #43 );
#12 = STYLED_ITEM( '', ( #44 ), #45 );
#13 = STYLED_ITEM( '', ( #46 ), #47 );
#14 = STYLED_ITEM( '', ( #48 ), #49 );
#15 = STYLED_ITEM( '', ( #50 ), #51 );
#16 = STYLED_ITEM( '', ( #52 ), #53 );
#17 = STYLED_ITEM( '', ( #54 ), #55 );
#18 = STYLED_ITEM( '', ( #56 ), #57 );
#19 = STYLED_ITEM( '', ( #58 ), #59 );
#20 = STYLED_ITEM( '', ( #60 ), #61 );
#21 = STYLED_ITEM( '', ( #62 ), #63 );
#22 = STYLED_ITEM( '', ( #64 ), #65 );
#23 = STYLED_ITEM( '', ( #66 ), #67 );
#24 = STYLED_ITEM( '', ( #68 ), #69 );
#25 = STYLED_ITEM( '', ( #70 ), #71 );
#26 = STYLED_ITEM( '', ( #72 ), #73 );
#27 = APPLICATION_CONTEXT( 'core data for automotive mechanical design processes' );
#28 = PRODUCT_CATEGORY( 'part', 'NONE' );
#29 = PRODUCT_RELATED_PRODUCT_CATEGORY( 'detail', ' ', ( #74 ) );
#30 = PRODUCT_DEFINITION_SHAPE( 'NONE', 'NONE', #75 );
#31 = ADVANCED_BREP_SHAPE_REPRESENTATION( '6327050', ( #76, #77 ), #6 );
#34 = UNCERTAINTY_MEASURE_WITH_UNIT( LENGTH_MEASURE( 0.00100000000000000 ), #36, '', '' );
#36 =  ( CONVERSION_BASED_UNIT( 'MILLIMETRE', #80 )LENGTH_UNIT(  )NAMED_UNIT( #83 ) );
#37 =  ( NAMED_UNIT( #85 )PLANE_ANGLE_UNIT(  )SI_UNIT( $, .RADIAN. ) );
#38 =  ( NAMED_UNIT( #85 )SI_UNIT( $, .STERADIAN. )SOLID_ANGLE_UNIT(  ) );
#40 = PRESENTATION_STYLE_ASSIGNMENT( ( #91 ) );
#41 = ADVANCED_FACE( '', ( #92, #93 ), #94, .T. );
#42 = PRESENTATION_STYLE_ASSIGNMENT( ( #95 ) );
#43 = ADVANCED_FACE( '', ( #96, #97 ), #98, .T. );
#44 = PRESENTATION_STYLE_ASSIGNMENT( ( #99 ) );
#45 = ADVANCED_FACE( '', ( #100, #101 ), #102, .T. );
#46 = PRESENTATION_STYLE_ASSIGNMENT( ( #103 ) );
#47 = ADVANCED_FACE( '', ( #104, #105 ), #106, .T. );
#48 = PRESENTATION_STYLE_ASSIGNMENT( ( #107 ) );
#49 = ADVANCED_FACE( '', ( #108, #109 ), #110, .F. );
#50 = PRESENTATION_STYLE_ASSIGNMENT( ( #111 ) );
#51 = ADVANCED_FACE( '', ( #112, #113 ), #114, .F. );
#52 = PRESENTATION_STYLE_ASSIGNMENT( ( #115 ) );
#53 = ADVANCED_FACE( '', ( #116, #117 ), #118, .F. );
#54 = PRESENTATION_STYLE_ASSIGNMENT( ( #119 ) );
#55 = ADVANCED_FACE( '', ( #120 ), #121, .T. );
#56 = PRESENTATION_STYLE_ASSIGNMENT( ( #122 ) );
#57 = ADVANCED_FACE( '', ( #123, #124 ), #125, .F. );
#58 = PRESENTATION_STYLE_ASSIGNMENT( ( #126 ) );
#59 = ADVANCED_FACE( '', ( #127, #128 ), #129, .T. );
#60 = PRESENTATION_STYLE_ASSIGNMENT( ( #130 ) );
#61 = ADVANCED_FACE( '', ( #131, #132 ), #133, .T. );
#62 = PRESENTATION_STYLE_ASSIGNMENT( ( #134 ) );
#63 = ADVANCED_FACE( '', ( #135, #136 ), #137, .T. );
#64 = PRESENTATION_STYLE_ASSIGNMENT( ( #138 ) );
#65 = ADVANCED_FACE( '', ( #139, #140 ), #141, .T. );
#66 = PRESENTATION_STYLE_ASSIGNMENT( ( #142 ) );
#67 = ADVANCED_FACE( '', ( #143, #144 ), #145, .F. );
#68 = PRESENTATION_STYLE_ASSIGNMENT( ( #146 ) );
#69 = ADVANCED_FACE( '', ( #147, #148 ), #149, .T. );
#70 = PRESENTATION_STYLE_ASSIGNMENT( ( #150 ) );
#71 = ADVANCED_FACE( '', ( #151, #152 ), #153, .T. );
#72 = PRESENTATION_STYLE_ASSIGNMENT( ( #154 ) );
#73 = ADVANCED_FACE( '', ( #155 ), #156, .F. );
#74 = PRODUCT( '6327050', '6327050', 'PART-6327050-DESC', ( #157 ) );
#75 = PRODUCT_DEFINITION( 'NONE', 'NONE', #158, #2 );
#76 = BREP_WITH_VOIDS( '6327050', #159, ( #160 ) );
#77 = AXIS2_PLACEMENT_3D( '', #161, #162, #163 );
#80 = LENGTH_MEASURE_WITH_UNIT( LENGTH_MEASURE( 1.00000000000000 ), #164 );
#83 = DIMENSIONAL_EXPONENTS( 1.00000000000000, 0.000000000000000, 0.000000000000000, 0.000000000000000, 0.000000000000000, 0.000000000000000, 0.000000000000000 );
#85 = DIMENSIONAL_EXPONENTS( 0.000000000000000, 0.000000000000000, 0.000000000000000, 0.000000000000000, 0.000000000000000, 0.000000000000000, 0.000000000000000 );
#91 = SURFACE_STYLE_USAGE( .BOTH., #165 );
#92 = FACE_OUTER_BOUND( '', #166, .T. );
#93 = FACE_OUTER_BOUND( '', #167, .T. );
#94 = CYLINDRICAL_SURFACE( '', #168, 2.00000000000000 );
#95 = SURFACE_STYLE_USAGE( .BOTH., #169 );
#96 = FACE_OUTER_BOUND( '', #170, .T. );
#97 = FACE_OUTER_BOUND( '', #171, .T. );
#98 = TOROIDAL_SURFACE( '', #172, 5.00000000000000, 0.500000000000000 );
#99 = SURFACE_STYLE_USAGE( .BOTH., #173 );
#100 = FACE_BOUND( '', #174, .T. );
#101 = FACE_OUTER_BOUND( '', #175, .T. );
#102 = CONICAL_SURFACE( '', #176, 2.00000000000000, 0.785398163397451 );
#103 = SURFACE_STYLE_USAGE( .BOTH., #177 );
#104 = FACE_OUTER_BOUND( '', #178, .T. );
#105 = FACE_OUTER_BOUND( '', #179, .T. );
#106 = TOROIDAL_SURFACE( '', #180, 6.80116032459969, 0.200000000000000 );
#107 = SURFACE_STYLE_USAGE( .BOTH., #181 );
#108 = FACE_OUTER_BOUND( '', #182, .T. );
#109 = FACE_BOUND( '', #183, .T. );
#110 = PLANE( '', #184 );
#111 = SURFACE_STYLE_USAGE( .BOTH., #185 );
#112 = FACE_BOUND( '', #186, .T. );
#113 = FACE_OUTER_BOUND( '', #187, .T. );
#114 = PLANE( '', #188 );
#115 = SURFACE_STYLE_USAGE( .BOTH., #189 );
#116 = FACE_OUTER_BOUND( '', #190, .T. );
#117 = FACE_OUTER_BOUND( '', #191, .T. );
#118 = CYLINDRICAL_SURFACE( '', #192, 2.00000000000000 );
#119 = SURFACE_STYLE_USAGE( .BOTH., #193 );
#120 = FACE_OUTER_BOUND( '', #194, .T. );
#121 = SPHERICAL_SURFACE( '', #195, 9.62857142857139 );
#122 = SURFACE_STYLE_USAGE( .BOTH., #196 );
#123 = FACE_OUTER_BOUND( '', #197, .T. );
#124 = FACE_OUTER_BOUND( '', #198, .T. );
#125 = TOROIDAL_SURFACE( '', #199, 2.20000000000000, 0.200000000000000 );
#126 = SURFACE_STYLE_USAGE( .BOTH., #200 );
#127 = FACE_OUTER_BOUND( '', #201, .T. );
#128 = FACE_OUTER_BOUND( '', #202, .T. );
#129 = CYLINDRICAL_SURFACE( '', #203, 7.50000000000000 );
#130 = SURFACE_STYLE_USAGE( .BOTH., #204 );
#131 = FACE_OUTER_BOUND( '', #205, .T. );
#132 = FACE_OUTER_BOUND( '', #206, .T. );
#133 = TOROIDAL_SURFACE( '', #207, 7.30000000000000, 0.200000000000000 );
#134 = SURFACE_STYLE_USAGE( .BOTH., #208 );
#135 = FACE_BOUND( '', #209, .T. );
#136 = FACE_OUTER_BOUND( '', #210, .T. );
#137 = PLANE( '', #211 );
#138 = SURFACE_STYLE_USAGE( .BOTH., #212 );
#139 = FACE_OUTER_BOUND( '', #213, .T. );
#140 = FACE_OUTER_BOUND( '', #214, .T. );
#141 = CYLINDRICAL_SURFACE( '', #215, 5.50000000000000 );
#142 = SURFACE_STYLE_USAGE( .BOTH., #216 );
#143 = FACE_OUTER_BOUND( '', #217, .T. );
#144 = FACE_BOUND( '', #218, .T. );
#145 = PLANE( '', #219 );
#146 = SURFACE_STYLE_USAGE( .BOTH., #220 );
#147 = FACE_BOUND( '', #221, .T. );
#148 = FACE_OUTER_BOUND( '', #222, .T. );
#149 = CONICAL_SURFACE( '', #223, 7.50000000000000, 0.107770510795142 );
#150 = SURFACE_STYLE_USAGE( .BOTH., #224 );
#151 = FACE_OUTER_BOUND( '', #225, .T. );
#152 = FACE_BOUND( '', #226, .T. );
#153 = CONICAL_SURFACE( '', #227, 1.20000000000000, 0.785398163397448 );
#154 = SURFACE_STYLE_USAGE( .BOTH., #228 );
#155 = FACE_OUTER_BOUND( '', #229, .T. );
#156 = PLANE( '', #230 );
#157 = PRODUCT_CONTEXT( '', #27, 'mechanical' );
#158 = PRODUCT_DEFINITION_FORMATION_WITH_SPECIFIED_SOURCE( ' ', 'NONE', #74, .NOT_KNOWN. );
#159 = CLOSED_SHELL( '', ( #49, #43, #73, #55, #65, #67, #61, #59, #57, #45, #41, #51, #47, #69 ) );
#160 = ORIENTED_CLOSED_SHELL( '', *, #231, .T. );
#161 = CARTESIAN_POINT( '', ( 0.000000000000000, 0.000000000000000, 0.000000000000000 ) );
#162 = DIRECTION( '', ( 0.000000000000000, 0.000000000000000, 1.00000000000000 ) );
#163 = DIRECTION( '', ( 1.00000000000000, 0.000000000000000, 0.000000000000000 ) );
#164 =  ( LENGTH_UNIT(  )NAMED_UNIT( #83 )SI_UNIT( .MILLI., .METRE. ) );
#165 = SURFACE_SIDE_STYLE( '', ( #233 ) );
#166 = EDGE_LOOP( '', ( #234 ) );
#167 = EDGE_LOOP( '', ( #235 ) );
#168 = AXIS2_PLACEMENT_3D( '', #236, #237, #238 );
#169 = SURFACE_SIDE_STYLE( '', ( #239 ) );
#170 = EDGE_LOOP( '', ( #240 ) );
#171 = EDGE_LOOP( '', ( #241 ) );
#172 = AXIS2_PLACEMENT_3D( '', #242, #243, #244 );
#173 = SURFACE_SIDE_STYLE( '', ( #245 ) );
#174 = EDGE_LOOP( '', ( #246 ) );
#175 = EDGE_LOOP( '', ( #247 ) );
#176 = AXIS2_PLACEMENT_3D( '', #248, #249, #250 );
#177 = SURFACE_SIDE_STYLE( '', ( #251 ) );
#178 = EDGE_LOOP( '', ( #252 ) );
#179 = EDGE_LOOP( '', ( #253 ) );
#180 = AXIS2_PLACEMENT_3D( '', #254, #255, #256 );
#181 = SURFACE_SIDE_STYLE( '', ( #257 ) );
#182 = EDGE_LOOP( '', ( #258 ) );
#183 = EDGE_LOOP( '', ( #259 ) );
#184 = AXIS2_PLACEMENT_3D( '', #260, #261, #262 );
#185 = SURFACE_SIDE_STYLE( '', ( #263 ) );
#186 = EDGE_LOOP( '', ( #264 ) );
#187 = EDGE_LOOP( '', ( #265 ) );
#188 = AXIS2_PLACEMENT_3D( '', #266, #267, #268 );
#189 = SURFACE_SIDE_STYLE( '', ( #269 ) );
#190 = EDGE_LOOP( '', ( #270 ) );
#191 = EDGE_LOOP( '', ( #271 ) );
#192 = AXIS2_PLACEMENT_3D( '', #272, #273, #274 );
#193 = SURFACE_SIDE_STYLE( '', ( #275 ) );
#194 = EDGE_LOOP( '', ( #276 ) );
#195 = AXIS2_PLACEMENT_3D( '', #277, #278, #279 );
#196 = SURFACE_SIDE_STYLE( '', ( #280 ) );
#197 = EDGE_LOOP( '', ( #281 ) );
#198 = EDGE_LOOP( '', ( #282 ) );
#199 = AXIS2_PLACEMENT_3D( '', #283, #284, #285 );
#200 = SURFACE_SIDE_STYLE( '', ( #286 ) );
#201 = EDGE_LOOP( '', ( #287 ) );
#202 = EDGE_LOOP( '', ( #288 ) );
#203 = AXIS2_PLACEMENT_3D( '', #289, #290, #291 );
#204 = SURFACE_SIDE_STYLE( '', ( #292 ) );
#205 = EDGE_LOOP( '', ( #293 ) );
#206 = EDGE_LOOP( '', ( #294 ) );
#207 = AXIS2_PLACEMENT_3D( '', #295, #296, #297 );
#208 = SURFACE_SIDE_STYLE( '', ( #298 ) );
#209 = EDGE_LOOP( '', ( #299 ) );
#210 = EDGE_LOOP( '', ( #300 ) );
#211 = AXIS2_PLACEMENT_3D( '', #301, #302, #303 );
#212 = SURFACE_SIDE_STYLE( '', ( #304 ) );
#213 = EDGE_LOOP( '', ( #305 ) );
#214 = EDGE_LOOP( '', ( #306 ) );
#215 = AXIS2_PLACEMENT_3D( '', #307, #308, #309 );
#216 = SURFACE_SIDE_STYLE( '', ( #310 ) );
#217 = EDGE_LOOP( '', ( #311 ) );
#218 = EDGE_LOOP( '', ( #312 ) );
#219 = AXIS2_PLACEMENT_3D( '', #313, #314, #315 );
#220 = SURFACE_SIDE_STYLE( '', ( #316 ) );
#221 = EDGE_LOOP( '', ( #317 ) );
#222 = EDGE_LOOP( '', ( #318 ) );
#223 = AXIS2_PLACEMENT_3D( '', #319, #320, #321 );
#224 = SURFACE_SIDE_STYLE( '', ( #322 ) );
#225 = EDGE_LOOP( '', ( #323 ) );
#226 = EDGE_LOOP( '', ( #324 ) );
#227 = AXIS2_PLACEMENT_3D( '', #325, #326, #327 );
#228 = SURFACE_SIDE_STYLE( '', ( #328 ) );
#229 = EDGE_LOOP( '', ( #329 ) );
#230 = AXIS2_PLACEMENT_3D( '', #330, #331, #332 );
#231 = CLOSED_SHELL( '', ( #71, #63, #53 ) );
#233 = SURFACE_STYLE_FILL_AREA( #333 );
#234 = ORIENTED_EDGE( '', *, *, #334, .T. );
#235 = ORIENTED_EDGE( '', *, *, #335, .T. );
#236 = CARTESIAN_POINT( '', ( 0.000000000000000, 0.000000000000000, -67.0002169755677 ) );
#237 = DIRECTION( '', ( -0.000000000000000, -0.000000000000000, -1.00000000000000 ) );
#238 = DIRECTION( '', ( 1.00000000000000, 0.000000000000000, 0.000000000000000 ) );
#239 = SURFACE_STYLE_FILL_AREA( #336 );
#240 = ORIENTED_EDGE( '', *, *, #337, .F. );
#241 = ORIENTED_EDGE( '', *, *, #338, .F. );
#242 = CARTESIAN_POINT( '', ( 7.35646653897199E-032, 1.20144183737250E-015, 0.499783024432253 ) );
#243 = DIRECTION( '', ( 0.000000000000000, 0.000000000000000, 1.00000000000000 ) );
#244 = DIRECTION( '', ( 1.00000000000000, 0.000000000000000, 0.000000000000000 ) );
#245 = SURFACE_STYLE_FILL_AREA( #339 );
#246 = ORIENTED_EDGE( '', *, *, #340, .F. );
#247 = ORIENTED_EDGE( '', *, *, #335, .F. );
#248 = CARTESIAN_POINT( '', ( 0.000000000000000, 0.000000000000000, -9.00021697556774 ) );
#249 = DIRECTION( '', ( -0.000000000000000, -0.000000000000000, 1.00000000000000 ) );
#250 = DIRECTION( '', ( 1.00000000000000, 0.000000000000000, 0.000000000000000 ) );
#251 = SURFACE_STYLE_FILL_AREA( #341 );
#252 = ORIENTED_EDGE( '', *, *, #342, .F. );
#253 = ORIENTED_EDGE( '', *, *, #343, .T. );
#254 = CARTESIAN_POINT( '', ( 9.62964972193618E-032, 8.67361737988404E-016, 12.3997830244323 ) );
#255 = DIRECTION( '', ( 0.000000000000000, 0.000000000000000, 1.00000000000000 ) );
#256 = DIRECTION( '', ( 1.00000000000000, 0.000000000000000, 0.000000000000000 ) );
#257 = SURFACE_STYLE_FILL_AREA( #344 );
#258 = ORIENTED_EDGE( '', *, *, #337, .T. );
#259 = ORIENTED_EDGE( '', *, *, #345, .T. );
#260 = CARTESIAN_POINT( '', ( 3.36766747301154E-016, 5.50000000000000, -0.000216975567747177 ) );
#261 = DIRECTION( '', ( 0.000000000000000, 0.000000000000000, 1.00000000000000 ) );
#262 = DIRECTION( '', ( 1.00000000000000, 0.000000000000000, 0.000000000000000 ) );
#263 = SURFACE_STYLE_FILL_AREA( #346 );
#264 = ORIENTED_EDGE( '', *, *, #347, .F. );
#265 = ORIENTED_EDGE( '', *, *, #342, .T. );
#266 = CARTESIAN_POINT( '', ( 4.16437207343473E-016, 6.80116032459969, 12.5997830244323 ) );
#267 = DIRECTION( '', ( 0.000000000000000, 0.000000000000000, -1.00000000000000 ) );
#268 = DIRECTION( '', ( -1.00000000000000, 0.000000000000000, 0.000000000000000 ) );
#269 = SURFACE_STYLE_FILL_AREA( #348 );
#270 = ORIENTED_EDGE( '', *, *, #349, .F. );
#271 = ORIENTED_EDGE( '', *, *, #350, .T. );
#272 = CARTESIAN_POINT( '', ( 0.000000000000000, 0.000000000000000, 54.0000000000000 ) );
#273 = DIRECTION( '', ( -0.000000000000000, -0.000000000000000, -1.00000000000000 ) );
#274 = DIRECTION( '', ( 1.00000000000000, 0.000000000000000, 0.000000000000000 ) );
#275 = SURFACE_STYLE_FILL_AREA( #351 );
#276 = ORIENTED_EDGE( '', *, *, #347, .T. );
#277 = CARTESIAN_POINT( '', ( -3.71761843391056E-031, -6.07153216591882E-015, 4.37121159586087 ) );
#278 = DIRECTION( '', ( 0.000000000000000, 0.000000000000000, 1.00000000000000 ) );
#279 = DIRECTION( '', ( 6.12303176911189E-017, 1.00000000000000, 0.000000000000000 ) );
#280 = SURFACE_STYLE_FILL_AREA( #352 );
#281 = ORIENTED_EDGE( '', *, *, #334, .F. );
#282 = ORIENTED_EDGE( '', *, *, #345, .F. );
#283 = CARTESIAN_POINT( '', ( 0.000000000000000, 0.000000000000000, -0.200216975567739 ) );
#284 = DIRECTION( '', ( 0.000000000000000, 0.000000000000000, 1.00000000000000 ) );
#285 = DIRECTION( '', ( 1.00000000000000, 0.000000000000000, 0.000000000000000 ) );
#286 = SURFACE_STYLE_FILL_AREA( #353 );
#287 = ORIENTED_EDGE( '', *, *, #354, .F. );
#288 = ORIENTED_EDGE( '', *, *, #355, .T. );
#289 = CARTESIAN_POINT( '', ( 7.35646653897199E-032, 1.20144183737250E-015, 9.81084112149533 ) );
#290 = DIRECTION( '', ( -0.000000000000000, -0.000000000000000, -1.00000000000000 ) );
#291 = DIRECTION( '', ( 1.00000000000000, 0.000000000000000, 0.000000000000000 ) );
#292 = SURFACE_STYLE_FILL_AREA( #356 );
#293 = ORIENTED_EDGE( '', *, *, #355, .F. );
#294 = ORIENTED_EDGE( '', *, *, #357, .T. );
#295 = CARTESIAN_POINT( '', ( 9.62964972193618E-032, 8.67361737988404E-016, 7.19978302443225 ) );
#296 = DIRECTION( '', ( 0.000000000000000, 0.000000000000000, 1.00000000000000 ) );
#297 = DIRECTION( '', ( 1.00000000000000, 0.000000000000000, 0.000000000000000 ) );
#298 = SURFACE_STYLE_FILL_AREA( #358 );
#299 = ORIENTED_EDGE( '', *, *, #359, .F. );
#300 = ORIENTED_EDGE( '', *, *, #350, .F. );
#301 = CARTESIAN_POINT( '', ( 2.00000000000000, 0.000000000000000, 5.99978302443225 ) );
#302 = DIRECTION( '', ( 0.000000000000000, 0.000000000000000, -1.00000000000000 ) );
#303 = DIRECTION( '', ( -1.00000000000000, 0.000000000000000, 0.000000000000000 ) );
#304 = SURFACE_STYLE_FILL_AREA( #360 );
#305 = ORIENTED_EDGE( '', *, *, #338, .T. );
#306 = ORIENTED_EDGE( '', *, *, #361, .F. );
#307 = CARTESIAN_POINT( '', ( 7.35646653897199E-032, 1.20144183737250E-015, 9.81084112149533 ) );
#308 = DIRECTION( '', ( -0.000000000000000, -0.000000000000000, -1.00000000000000 ) );
#309 = DIRECTION( '', ( 1.00000000000000, 0.000000000000000, 0.000000000000000 ) );
#310 = SURFACE_STYLE_FILL_AREA( #362 );
#311 = ORIENTED_EDGE( '', *, *, #357, .F. );
#312 = ORIENTED_EDGE( '', *, *, #361, .T. );
#313 = CARTESIAN_POINT( '', ( 4.46981319145168E-016, 7.30000000000000, 6.99978302443225 ) );
#314 = DIRECTION( '', ( 0.000000000000000, 0.000000000000000, 1.00000000000000 ) );
#315 = DIRECTION( '', ( 1.00000000000000, 0.000000000000000, 0.000000000000000 ) );
#316 = SURFACE_STYLE_FILL_AREA( #363 );
#317 = ORIENTED_EDGE( '', *, *, #343, .F. );
#318 = ORIENTED_EDGE( '', *, *, #354, .T. );
#319 = CARTESIAN_POINT( '', ( 7.35646653897199E-032, 1.20144183737250E-015, 7.79978302443181 ) );
#320 = DIRECTION( '', ( -0.000000000000000, 0.000000000000000, -1.00000000000000 ) );
#321 = DIRECTION( '', ( -1.00000000000000, 0.000000000000000, 0.000000000000000 ) );
#322 = SURFACE_STYLE_FILL_AREA( #364 );
#323 = ORIENTED_EDGE( '', *, *, #349, .T. );
#324 = ORIENTED_EDGE( '', *, *, #359, .T. );
#325 = CARTESIAN_POINT( '', ( 0.000000000000000, 0.000000000000000, 5.99978302443227 ) );
#326 = DIRECTION( '', ( -0.000000000000000, 0.000000000000000, -1.00000000000000 ) );
#327 = DIRECTION( '', ( -1.00000000000000, 0.000000000000000, 0.000000000000000 ) );
#328 = SURFACE_STYLE_FILL_AREA( #365 );
#329 = ORIENTED_EDGE( '', *, *, #340, .T. );
#330 = CARTESIAN_POINT( '', ( 0.000000000000000, 0.000000000000000, -10.0002169755677 ) );
#331 = DIRECTION( '', ( 0.000000000000000, 0.000000000000000, 1.00000000000000 ) );
#332 = DIRECTION( '', ( 1.00000000000000, 0.000000000000000, 0.000000000000000 ) );
#333 = FILL_AREA_STYLE( '', ( #366 ) );
#334 = EDGE_CURVE( '', #367, #367, #368, .F. );
#335 = EDGE_CURVE( '', #369, #369, #370, .T. );
#336 = FILL_AREA_STYLE( '', ( #371 ) );
#337 = EDGE_CURVE( '', #372, #372, #373, .F. );
#338 = EDGE_CURVE( '', #374, #374, #375, .T. );
#339 = FILL_AREA_STYLE( '', ( #376 ) );
#340 = EDGE_CURVE( '', #377, #377, #378, .F. );
#341 = FILL_AREA_STYLE( '', ( #379 ) );
#342 = EDGE_CURVE( '', #380, #380, #381, .T. );
#343 = EDGE_CURVE( '', #382, #382, #383, .T. );
#344 = FILL_AREA_STYLE( '', ( #384 ) );
#345 = EDGE_CURVE( '', #385, #385, #386, .T. );
#346 = FILL_AREA_STYLE( '', ( #387 ) );
#347 = EDGE_CURVE( '', #388, #388, #389, .T. );
#348 = FILL_AREA_STYLE( '', ( #390 ) );
#349 = EDGE_CURVE( '', #391, #391, #392, .F. );
#350 = EDGE_CURVE( '', #393, #393, #394, .T. );
#351 = FILL_AREA_STYLE( '', ( #395 ) );
#352 = FILL_AREA_STYLE( '', ( #396 ) );
#353 = FILL_AREA_STYLE( '', ( #397 ) );
#354 = EDGE_CURVE( '', #398, #398, #399, .T. );
#355 = EDGE_CURVE( '', #400, #400, #401, .T. );
#356 = FILL_AREA_STYLE( '', ( #402 ) );
#357 = EDGE_CURVE( '', #403, #403, #404, .T. );
#358 = FILL_AREA_STYLE( '', ( #405 ) );
#359 = EDGE_CURVE( '', #406, #406, #407, .T. );
#360 = FILL_AREA_STYLE( '', ( #408 ) );
#361 = EDGE_CURVE( '', #409, #409, #410, .T. );
#362 = FILL_AREA_STYLE( '', ( #411 ) );
#363 = FILL_AREA_STYLE( '', ( #412 ) );
#364 = FILL_AREA_STYLE( '', ( #413 ) );
#365 = FILL_AREA_STYLE( '', ( #414 ) );
#366 = FILL_AREA_STYLE_COLOUR( '', #415 );
#367 = VERTEX_POINT( '', #416 );
#368 = CIRCLE( '', #417, 2.00000000000000 );
#369 = VERTEX_POINT( '', #418 );
#370 = CIRCLE( '', #419, 2.00000000000000 );
#371 = FILL_AREA_STYLE_COLOUR( '', #420 );
#372 = VERTEX_POINT( '', #421 );
#373 = CIRCLE( '', #422, 5.00000000000000 );
#374 = VERTEX_POINT( '', #423 );
#375 = CIRCLE( '', #424, 5.50000000000000 );
#376 = FILL_AREA_STYLE_COLOUR( '', #425 );
#377 = VERTEX_POINT( '', #426 );
#378 = CIRCLE( '', #427, 1.00000000000000 );
#379 = FILL_AREA_STYLE_COLOUR( '', #428 );
#380 = VERTEX_POINT( '', #429 );
#381 = CIRCLE( '', #430, 6.80116032459969 );
#382 = VERTEX_POINT( '', #431 );
#383 = CIRCLE( '', #432, 7.00000000000000 );
#384 = FILL_AREA_STYLE_COLOUR( '', #433 );
#385 = VERTEX_POINT( '', #434 );
#386 = CIRCLE( '', #435, 2.20000000000000 );
#387 = FILL_AREA_STYLE_COLOUR( '', #436 );
#388 = VERTEX_POINT( '', #437 );
#389 = CIRCLE( '', #438, 5.00000000000000 );
#390 = FILL_AREA_STYLE_COLOUR( '', #439 );
#391 = VERTEX_POINT( '', #440 );
#392 = CIRCLE( '', #441, 2.00000000000000 );
#393 = VERTEX_POINT( '', #442 );
#394 = CIRCLE( '', #443, 2.00000000000000 );
#395 = FILL_AREA_STYLE_COLOUR( '', #444 );
#396 = FILL_AREA_STYLE_COLOUR( '', #445 );
#397 = FILL_AREA_STYLE_COLOUR( '', #446 );
#398 = VERTEX_POINT( '', #447 );
#399 = CIRCLE( '', #448, 7.50000000000000 );
#400 = VERTEX_POINT( '', #449 );
#401 = CIRCLE( '', #450, 7.50000000000000 );
#402 = FILL_AREA_STYLE_COLOUR( '', #451 );
#403 = VERTEX_POINT( '', #452 );
#404 = CIRCLE( '', #453, 7.30000000000000 );
#405 = FILL_AREA_STYLE_COLOUR( '', #454 );
#406 = VERTEX_POINT( '', #455 );
#407 = CIRCLE( '', #456, 1.20000000000002 );
#408 = FILL_AREA_STYLE_COLOUR( '', #457 );
#409 = VERTEX_POINT( '', #458 );
#410 = CIRCLE( '', #459, 5.50000000000000 );
#411 = FILL_AREA_STYLE_COLOUR( '', #460 );
#412 = FILL_AREA_STYLE_COLOUR( '', #461 );
#413 = FILL_AREA_STYLE_COLOUR( '', #462 );
#414 = FILL_AREA_STYLE_COLOUR( '', #463 );
#415 = COLOUR_RGB( '', 0.752941191196442, 0.752941191196442, 0.752941191196442 );
#416 = CARTESIAN_POINT( '', ( 2.00000000000000, 0.000000000000000, -0.200216975567739 ) );
#417 = AXIS2_PLACEMENT_3D( '', #464, #465, #466 );
#418 = CARTESIAN_POINT( '', ( 2.00000000000000, 0.000000000000000, -9.00021697556774 ) );
#419 = AXIS2_PLACEMENT_3D( '', #467, #468, #469 );
#420 = COLOUR_RGB( '', 0.200000002980232, 0.200000002980232, 0.200000002980232 );
#421 = CARTESIAN_POINT( '', ( 5.00000000000000, 1.20144183737250E-015, -0.000216975567747177 ) );
#422 = AXIS2_PLACEMENT_3D( '', #470, #471, #472 );
#423 = CARTESIAN_POINT( '', ( 5.50000000000000, 1.20144183737250E-015, 0.499783024432253 ) );
#424 = AXIS2_PLACEMENT_3D( '', #473, #474, #475 );
#425 = COLOUR_RGB( '', 0.666666686534882, 0.733333349227905, 0.866666674613953 );
#426 = CARTESIAN_POINT( '', ( 1.00000000000000, 0.000000000000000, -10.0002169755677 ) );
#427 = AXIS2_PLACEMENT_3D( '', #476, #477, #478 );
#428 = COLOUR_RGB( '', 0.200000002980232, 0.200000002980232, 0.200000002980232 );
#429 = CARTESIAN_POINT( '', ( 6.80116032459969, 1.20144183737250E-015, 12.5997830244323 ) );
#430 = AXIS2_PLACEMENT_3D( '', #479, #480, #481 );
#431 = CARTESIAN_POINT( '', ( 7.00000000000000, 1.20144183737250E-015, 12.4212954275221 ) );
#432 = AXIS2_PLACEMENT_3D( '', #482, #483, #484 );
#433 = COLOUR_RGB( '', 0.752941191196442, 0.752941191196442, 0.752941191196442 );
#434 = CARTESIAN_POINT( '', ( 2.20000000000000, 0.000000000000000, -0.000216975567738503 ) );
#435 = AXIS2_PLACEMENT_3D( '', #485, #486, #487 );
#436 = COLOUR_RGB( '', 0.200000002980232, 0.200000002980232, 0.200000002980232 );
#437 = CARTESIAN_POINT( '', ( 5.00000000000000, 1.20144183737250E-015, 12.5997830244323 ) );
#438 = AXIS2_PLACEMENT_3D( '', #488, #489, #490 );
#439 = COLOUR_RGB( '', 0.200000002980232, 0.200000002980232, 0.200000002980232 );
#440 = CARTESIAN_POINT( '', ( -2.00000000000000, 0.000000000000000, 5.19978302443228 ) );
#441 = AXIS2_PLACEMENT_3D( '', #491, #492, #493 );
#442 = CARTESIAN_POINT( '', ( 2.00000000000000, 0.000000000000000, 5.99978302443225 ) );
#443 = AXIS2_PLACEMENT_3D( '', #494, #495, #496 );
#444 = COLOUR_RGB( '', 0.200000002980232, 0.200000002980232, 0.200000002980232 );
#445 = COLOUR_RGB( '', 0.666666686534882, 0.733333349227905, 0.866666674613953 );
#446 = COLOUR_RGB( '', 0.200000002980232, 0.200000002980232, 0.200000002980232 );
#447 = CARTESIAN_POINT( '', ( 7.50000000000000, 1.20144183737250E-015, 7.79978302443181 ) );
#448 = AXIS2_PLACEMENT_3D( '', #497, #498, #499 );
#449 = CARTESIAN_POINT( '', ( 7.50000000000000, 1.20144183737250E-015, 7.19978302443225 ) );
#450 = AXIS2_PLACEMENT_3D( '', #500, #501, #502 );
#451 = COLOUR_RGB( '', 0.200000002980232, 0.200000002980232, 0.200000002980232 );
#452 = CARTESIAN_POINT( '', ( 7.30000000000000, 1.20144183737250E-015, 6.99978302443225 ) );
#453 = AXIS2_PLACEMENT_3D( '', #503, #504, #505 );
#454 = COLOUR_RGB( '', 0.200000002980232, 0.200000002980232, 0.200000002980232 );
#455 = CARTESIAN_POINT( '', ( -1.20000000000002, 0.000000000000000, 5.99978302443225 ) );
#456 = AXIS2_PLACEMENT_3D( '', #506, #507, #508 );
#457 = COLOUR_RGB( '', 0.200000002980232, 0.200000002980232, 0.200000002980232 );
#458 = CARTESIAN_POINT( '', ( 5.50000000000000, 1.20144183737250E-015, 6.99978302443225 ) );
#459 = AXIS2_PLACEMENT_3D( '', #509, #510, #511 );
#460 = COLOUR_RGB( '', 0.200000002980232, 0.200000002980232, 0.200000002980232 );
#461 = COLOUR_RGB( '', 0.200000002980232, 0.200000002980232, 0.200000002980232 );
#462 = COLOUR_RGB( '', 0.666666686534882, 0.733333349227905, 0.866666674613953 );
#463 = COLOUR_RGB( '', 0.666666686534882, 0.733333349227905, 0.866666674613953 );
#464 = CARTESIAN_POINT( '', ( 0.000000000000000, 0.000000000000000, -0.200216975567739 ) );
#465 = DIRECTION( '', ( 0.000000000000000, 0.000000000000000, 1.00000000000000 ) );
#466 = DIRECTION( '', ( 1.00000000000000, 0.000000000000000, 0.000000000000000 ) );
#467 = CARTESIAN_POINT( '', ( 0.000000000000000, 0.000000000000000, -9.00021697556774 ) );
#468 = DIRECTION( '', ( 0.000000000000000, 0.000000000000000, 1.00000000000000 ) );
#469 = DIRECTION( '', ( 1.00000000000000, 0.000000000000000, 0.000000000000000 ) );
#470 = CARTESIAN_POINT( '', ( 7.35646653897199E-032, 1.20144183737250E-015, -0.000216975567747177 ) );
#471 = DIRECTION( '', ( 0.000000000000000, 0.000000000000000, 1.00000000000000 ) );
#472 = DIRECTION( '', ( 1.00000000000000, 0.000000000000000, 0.000000000000000 ) );
#473 = CARTESIAN_POINT( '', ( 7.35646653897199E-032, 1.20144183737250E-015, 0.499783024432253 ) );
#474 = DIRECTION( '', ( 0.000000000000000, 0.000000000000000, 1.00000000000000 ) );
#475 = DIRECTION( '', ( 1.00000000000000, 0.000000000000000, 0.000000000000000 ) );
#476 = CARTESIAN_POINT( '', ( 0.000000000000000, 0.000000000000000, -10.0002169755677 ) );
#477 = DIRECTION( '', ( 0.000000000000000, 0.000000000000000, 1.00000000000000 ) );
#478 = DIRECTION( '', ( 1.00000000000000, 0.000000000000000, 0.000000000000000 ) );
#479 = CARTESIAN_POINT( '', ( 7.35646653897199E-032, 1.20144183737250E-015, 12.5997830244323 ) );
#480 = DIRECTION( '', ( 0.000000000000000, 0.000000000000000, 1.00000000000000 ) );
#481 = DIRECTION( '', ( 1.00000000000000, 0.000000000000000, 0.000000000000000 ) );
#482 = CARTESIAN_POINT( '', ( 7.35646653897199E-032, 1.20144183737250E-015, 12.4212954275221 ) );
#483 = DIRECTION( '', ( 0.000000000000000, 0.000000000000000, 1.00000000000000 ) );
#484 = DIRECTION( '', ( 1.00000000000000, 0.000000000000000, 0.000000000000000 ) );
#485 = CARTESIAN_POINT( '', ( 0.000000000000000, 0.000000000000000, -0.000216975567738503 ) );
#486 = DIRECTION( '', ( 0.000000000000000, 0.000000000000000, 1.00000000000000 ) );
#487 = DIRECTION( '', ( 1.00000000000000, 0.000000000000000, 0.000000000000000 ) );
#488 = CARTESIAN_POINT( '', ( 7.35646653897199E-032, 1.20144183737250E-015, 12.5997830244323 ) );
#489 = DIRECTION( '', ( 0.000000000000000, 0.000000000000000, 1.00000000000000 ) );
#490 = DIRECTION( '', ( 1.00000000000000, 0.000000000000000, 0.000000000000000 ) );
#491 = CARTESIAN_POINT( '', ( 0.000000000000000, 0.000000000000000, 5.19978302443228 ) );
#492 = DIRECTION( '', ( 0.000000000000000, 0.000000000000000, -1.00000000000000 ) );
#493 = DIRECTION( '', ( -1.00000000000000, 0.000000000000000, 0.000000000000000 ) );
#494 = CARTESIAN_POINT( '', ( 0.000000000000000, 0.000000000000000, 5.99978302443225 ) );
#495 = DIRECTION( '', ( 0.000000000000000, 0.000000000000000, 1.00000000000000 ) );
#496 = DIRECTION( '', ( 1.00000000000000, 0.000000000000000, 0.000000000000000 ) );
#497 = CARTESIAN_POINT( '', ( 7.35646653897199E-032, 1.20144183737250E-015, 7.79978302443181 ) );
#498 = DIRECTION( '', ( 0.000000000000000, 0.000000000000000, 1.00000000000000 ) );
#499 = DIRECTION( '', ( 1.00000000000000, 0.000000000000000, 0.000000000000000 ) );
#500 = CARTESIAN_POINT( '', ( 7.35646653897199E-032, 1.20144183737250E-015, 7.19978302443225 ) );
#501 = DIRECTION( '', ( 0.000000000000000, 0.000000000000000, 1.00000000000000 ) );
#502 = DIRECTION( '', ( 1.00000000000000, 0.000000000000000, 0.000000000000000 ) );
#503 = CARTESIAN_POINT( '', ( 7.35646653897199E-032, 1.20144183737250E-015, 6.99978302443225 ) );
#504 = DIRECTION( '', ( 0.000000000000000, 0.000000000000000, 1.00000000000000 ) );
#505 = DIRECTION( '', ( 1.00000000000000, 0.000000000000000, 0.000000000000000 ) );
#506 = CARTESIAN_POINT( '', ( 0.000000000000000, 0.000000000000000, 5.99978302443225 ) );
#507 = DIRECTION( '', ( 0.000000000000000, 0.000000000000000, -1.00000000000000 ) );
#508 = DIRECTION( '', ( -1.00000000000000, 0.000000000000000, 0.000000000000000 ) );
#509 = CARTESIAN_POINT( '', ( 7.35646653897199E-032, 1.20144183737250E-015, 6.99978302443225 ) );
#510 = DIRECTION( '', ( 0.000000000000000, 0.000000000000000, 1.00000000000000 ) );
#511 = DIRECTION( '', ( 1.00000000000000, 0.000000000000000, 0.000000000000000 ) );
ENDSEC;
END-ISO-10303-21;
