ISO-10303-21;
HEADER;
FILE_DESCRIPTION( ( 'Unknown' ), '1' );
FILE_NAME( 'E:/98-Dis_3D_per_controllo/ZP/6327055_ZP15_M04x15/6327055_ZP15_M04x15.stp', 'Unknown', ( 'Unknown' ), ( 'Unknown' ), 'PSStep 11.0', 'Unknown', '  ' );
FILE_SCHEMA( ( 'AUTOMOTIVE_DESIGN { 1 0 10303 214 1 1 1 1 }' ) );
ENDSEC;
DATA;
#1 = MECHANICAL_DESIGN_GEOMETRIC_PRESENTATION_REPRESENTATION( ' ', ( #10, #11, #12, #13, #14, #15, #16, #17, #18, #19, #20, #21, #22, #23, #24, #25, #26 ), #6 );
#2 = PRODUCT_DEFINITION_CONTEXT( '', #27, 'design' );
#3 = APPLICATION_PROTOCOL_DEFINITION( 'INTERNATIONAL STANDARD', 'automotive_design', 2001, #27 );
#4 = PRODUCT_CATEGORY_RELATIONSHIP( 'NONE', 'NONE', #28, #29 );
#5 = SHAPE_DEFINITION_REPRESENTATION( #30, #31 );
#6 =  ( GEOMETRIC_REPRESENTATION_CONTEXT( 3 )GLOBAL_UNCERTAINTY_ASSIGNED_CONTEXT( ( #34 ) )GLOBAL_UNIT_ASSIGNED_CONTEXT( ( #36, #37, #38 ) )REPRESENTATION_CONTEXT( 'NONE', 'WORKSPACE' ) );
#10 = STYLED_ITEM( '', ( #40 ), #41 );
#11 = STYLED_ITEM( '', ( #42 ), #43 );
#12 = STYLED_ITEM( '', ( #44 ), #45 );
#13 = STYLED_ITEM( '', ( #46 ), #47 );
#14 = STYLED_ITEM( '', ( #48 ), #49 );
#15 = STYLED_ITEM( '', ( #50 ), #51 );
#16 = STYLED_ITEM( '', ( #52 ), #53 );
#17 = STYLED_ITEM( '', ( #54 ), #55 );
#18 = STYLED_ITEM( '', ( #56 ), #57 );
#19 = STYLED_ITEM( '', ( #58 ), #59 );
#20 = STYLED_ITEM( '', ( #60 ), #61 );
#21 = STYLED_ITEM( '', ( #62 ), #63 );
#22 = STYLED_ITEM( '', ( #64 ), #65 );
#23 = STYLED_ITEM( '', ( #66 ), #67 );
#24 = STYLED_ITEM( '', ( #68 ), #69 );
#25 = STYLED_ITEM( '', ( #70 ), #71 );
#26 = STYLED_ITEM( '', ( #72 ), #73 );
#27 = APPLICATION_CONTEXT( 'core data for automotive mechanical design processes' );
#28 = PRODUCT_CATEGORY( 'part', 'NONE' );
#29 = PRODUCT_RELATED_PRODUCT_CATEGORY( 'detail', ' ', ( #74 ) );
#30 = PRODUCT_DEFINITION_SHAPE( 'NONE', 'NONE', #75 );
#31 = ADVANCED_BREP_SHAPE_REPRESENTATION( '6327055', ( #76, #77 ), #6 );
#34 = UNCERTAINTY_MEASURE_WITH_UNIT( LENGTH_MEASURE( 0.00100000000000000 ), #36, '', '' );
#36 =  ( CONVERSION_BASED_UNIT( 'MILLIMETRE', #80 )LENGTH_UNIT(  )NAMED_UNIT( #83 ) );
#37 =  ( NAMED_UNIT( #85 )PLANE_ANGLE_UNIT(  )SI_UNIT( $, .RADIAN. ) );
#38 =  ( NAMED_UNIT( #85 )SI_UNIT( $, .STERADIAN. )SOLID_ANGLE_UNIT(  ) );
#40 = PRESENTATION_STYLE_ASSIGNMENT( ( #91 ) );
#41 = ADVANCED_FACE( '', ( #92, #93 ), #94, .F. );
#42 = PRESENTATION_STYLE_ASSIGNMENT( ( #95 ) );
#43 = ADVANCED_FACE( '', ( #96 ), #97, .T. );
#44 = PRESENTATION_STYLE_ASSIGNMENT( ( #98 ) );
#45 = ADVANCED_FACE( '', ( #99, #100 ), #101, .F. );
#46 = PRESENTATION_STYLE_ASSIGNMENT( ( #102 ) );
#47 = ADVANCED_FACE( '', ( #103, #104 ), #105, .T. );
#48 = PRESENTATION_STYLE_ASSIGNMENT( ( #106 ) );
#49 = ADVANCED_FACE( '', ( #107, #108 ), #109, .T. );
#50 = PRESENTATION_STYLE_ASSIGNMENT( ( #110 ) );
#51 = ADVANCED_FACE( '', ( #111, #112 ), #113, .T. );
#52 = PRESENTATION_STYLE_ASSIGNMENT( ( #114 ) );
#53 = ADVANCED_FACE( '', ( #115, #116 ), #117, .F. );
#54 = PRESENTATION_STYLE_ASSIGNMENT( ( #118 ) );
#55 = ADVANCED_FACE( '', ( #119, #120 ), #121, .T. );
#56 = PRESENTATION_STYLE_ASSIGNMENT( ( #122 ) );
#57 = ADVANCED_FACE( '', ( #123, #124 ), #125, .T. );
#58 = PRESENTATION_STYLE_ASSIGNMENT( ( #126 ) );
#59 = ADVANCED_FACE( '', ( #127, #128 ), #129, .T. );
#60 = PRESENTATION_STYLE_ASSIGNMENT( ( #130 ) );
#61 = ADVANCED_FACE( '', ( #131 ), #132, .T. );
#62 = PRESENTATION_STYLE_ASSIGNMENT( ( #133 ) );
#63 = ADVANCED_FACE( '', ( #134, #135 ), #136, .F. );
#64 = PRESENTATION_STYLE_ASSIGNMENT( ( #137 ) );
#65 = ADVANCED_FACE( '', ( #138, #139 ), #140, .T. );
#66 = PRESENTATION_STYLE_ASSIGNMENT( ( #141 ) );
#67 = ADVANCED_FACE( '', ( #142, #143 ), #144, .T. );
#68 = PRESENTATION_STYLE_ASSIGNMENT( ( #145 ) );
#69 = ADVANCED_FACE( '', ( #146, #147 ), #148, .F. );
#70 = PRESENTATION_STYLE_ASSIGNMENT( ( #149 ) );
#71 = ADVANCED_FACE( '', ( #150, #151 ), #152, .T. );
#72 = PRESENTATION_STYLE_ASSIGNMENT( ( #153 ) );
#73 = ADVANCED_FACE( '', ( #154, #155 ), #156, .T. );
#74 = PRODUCT( '6327055', '6327055', 'PART-6327055-DESC', ( #157 ) );
#75 = PRODUCT_DEFINITION( 'NONE', 'NONE', #158, #2 );
#76 = BREP_WITH_VOIDS( '6327055', #159, ( #160 ) );
#77 = AXIS2_PLACEMENT_3D( '', #161, #162, #163 );
#80 = LENGTH_MEASURE_WITH_UNIT( LENGTH_MEASURE( 1.00000000000000 ), #164 );
#83 = DIMENSIONAL_EXPONENTS( 1.00000000000000, 0.000000000000000, 0.000000000000000, 0.000000000000000, 0.000000000000000, 0.000000000000000, 0.000000000000000 );
#85 = DIMENSIONAL_EXPONENTS( 0.000000000000000, 0.000000000000000, 0.000000000000000, 0.000000000000000, 0.000000000000000, 0.000000000000000, 0.000000000000000 );
#91 = SURFACE_STYLE_USAGE( .BOTH., #165 );
#92 = FACE_OUTER_BOUND( '', #166, .T. );
#93 = FACE_OUTER_BOUND( '', #167, .T. );
#94 = TOROIDAL_SURFACE( '', #168, 2.20000000000000, 0.200000000000000 );
#95 = SURFACE_STYLE_USAGE( .BOTH., #169 );
#96 = FACE_OUTER_BOUND( '', #170, .T. );
#97 = SPHERICAL_SURFACE( '', #171, 9.62857142857139 );
#98 = SURFACE_STYLE_USAGE( .BOTH., #172 );
#99 = FACE_OUTER_BOUND( '', #173, .T. );
#100 = FACE_OUTER_BOUND( '', #174, .T. );
#101 = CYLINDRICAL_SURFACE( '', #175, 2.00000000000000 );
#102 = SURFACE_STYLE_USAGE( .BOTH., #176 );
#103 = FACE_OUTER_BOUND( '', #177, .T. );
#104 = FACE_OUTER_BOUND( '', #178, .T. );
#105 = CYLINDRICAL_SURFACE( '', #179, 2.00000000000000 );
#106 = SURFACE_STYLE_USAGE( .BOTH., #180 );
#107 = FACE_BOUND( '', #181, .T. );
#108 = FACE_OUTER_BOUND( '', #182, .T. );
#109 = PLANE( '', #183 );
#110 = SURFACE_STYLE_USAGE( .BOTH., #184 );
#111 = FACE_OUTER_BOUND( '', #185, .T. );
#112 = FACE_OUTER_BOUND( '', #186, .T. );
#113 = TOROIDAL_SURFACE( '', #187, 7.30000000000000, 0.200000000000000 );
#114 = SURFACE_STYLE_USAGE( .BOTH., #188 );
#115 = FACE_OUTER_BOUND( '', #189, .T. );
#116 = FACE_BOUND( '', #190, .T. );
#117 = PLANE( '', #191 );
#118 = SURFACE_STYLE_USAGE( .BOTH., #192 );
#119 = FACE_BOUND( '', #193, .T. );
#120 = FACE_OUTER_BOUND( '', #194, .T. );
#121 = CONICAL_SURFACE( '', #195, 7.50000000000000, 0.107770510795142 );
#122 = SURFACE_STYLE_USAGE( .BOTH., #196 );
#123 = FACE_BOUND( '', #197, .T. );
#124 = FACE_OUTER_BOUND( '', #198, .T. );
#125 = CONICAL_SURFACE( '', #199, 2.00000000000000, 0.785398163397448 );
#126 = SURFACE_STYLE_USAGE( .BOTH., #200 );
#127 = FACE_OUTER_BOUND( '', #201, .T. );
#128 = FACE_OUTER_BOUND( '', #202, .T. );
#129 = TOROIDAL_SURFACE( '', #203, 5.00000000000000, 0.500000000000000 );
#130 = SURFACE_STYLE_USAGE( .BOTH., #204 );
#131 = FACE_OUTER_BOUND( '', #205, .T. );
#132 = PLANE( '', #206 );
#133 = SURFACE_STYLE_USAGE( .BOTH., #207 );
#134 = FACE_OUTER_BOUND( '', #208, .T. );
#135 = FACE_BOUND( '', #209, .T. );
#136 = PLANE( '', #210 );
#137 = SURFACE_STYLE_USAGE( .BOTH., #211 );
#138 = FACE_OUTER_BOUND( '', #212, .T. );
#139 = FACE_OUTER_BOUND( '', #213, .T. );
#140 = CYLINDRICAL_SURFACE( '', #214, 7.50000000000000 );
#141 = SURFACE_STYLE_USAGE( .BOTH., #215 );
#142 = FACE_OUTER_BOUND( '', #216, .T. );
#143 = FACE_OUTER_BOUND( '', #217, .T. );
#144 = CYLINDRICAL_SURFACE( '', #218, 5.50000000000000 );
#145 = SURFACE_STYLE_USAGE( .BOTH., #219 );
#146 = FACE_BOUND( '', #220, .T. );
#147 = FACE_OUTER_BOUND( '', #221, .T. );
#148 = PLANE( '', #222 );
#149 = SURFACE_STYLE_USAGE( .BOTH., #223 );
#150 = FACE_OUTER_BOUND( '', #224, .T. );
#151 = FACE_OUTER_BOUND( '', #225, .T. );
#152 = TOROIDAL_SURFACE( '', #226, 6.80116032459969, 0.200000000000000 );
#153 = SURFACE_STYLE_USAGE( .BOTH., #227 );
#154 = FACE_OUTER_BOUND( '', #228, .T. );
#155 = FACE_BOUND( '', #229, .T. );
#156 = CONICAL_SURFACE( '', #230, 1.20000000000000, 0.785398163397448 );
#157 = PRODUCT_CONTEXT( '', #27, 'mechanical' );
#158 = PRODUCT_DEFINITION_FORMATION_WITH_SPECIFIED_SOURCE( ' ', 'NONE', #74, .NOT_KNOWN. );
#159 = CLOSED_SHELL( '', ( #63, #59, #47, #43, #67, #53, #51, #65, #41, #57, #61, #69, #71, #55 ) );
#160 = ORIENTED_CLOSED_SHELL( '', *, #231, .T. );
#161 = CARTESIAN_POINT( '', ( 0.000000000000000, 0.000000000000000, 0.000000000000000 ) );
#162 = DIRECTION( '', ( 0.000000000000000, 0.000000000000000, 1.00000000000000 ) );
#163 = DIRECTION( '', ( 1.00000000000000, 0.000000000000000, 0.000000000000000 ) );
#164 =  ( LENGTH_UNIT(  )NAMED_UNIT( #83 )SI_UNIT( .MILLI., .METRE. ) );
#165 = SURFACE_SIDE_STYLE( '', ( #233 ) );
#166 = EDGE_LOOP( '', ( #234 ) );
#167 = EDGE_LOOP( '', ( #235 ) );
#168 = AXIS2_PLACEMENT_3D( '', #236, #237, #238 );
#169 = SURFACE_SIDE_STYLE( '', ( #239 ) );
#170 = EDGE_LOOP( '', ( #240 ) );
#171 = AXIS2_PLACEMENT_3D( '', #241, #242, #243 );
#172 = SURFACE_SIDE_STYLE( '', ( #244 ) );
#173 = EDGE_LOOP( '', ( #245 ) );
#174 = EDGE_LOOP( '', ( #246 ) );
#175 = AXIS2_PLACEMENT_3D( '', #247, #248, #249 );
#176 = SURFACE_SIDE_STYLE( '', ( #250 ) );
#177 = EDGE_LOOP( '', ( #251 ) );
#178 = EDGE_LOOP( '', ( #252 ) );
#179 = AXIS2_PLACEMENT_3D( '', #253, #254, #255 );
#180 = SURFACE_SIDE_STYLE( '', ( #256 ) );
#181 = EDGE_LOOP( '', ( #257 ) );
#182 = EDGE_LOOP( '', ( #258 ) );
#183 = AXIS2_PLACEMENT_3D( '', #259, #260, #261 );
#184 = SURFACE_SIDE_STYLE( '', ( #262 ) );
#185 = EDGE_LOOP( '', ( #263 ) );
#186 = EDGE_LOOP( '', ( #264 ) );
#187 = AXIS2_PLACEMENT_3D( '', #265, #266, #267 );
#188 = SURFACE_SIDE_STYLE( '', ( #268 ) );
#189 = EDGE_LOOP( '', ( #269 ) );
#190 = EDGE_LOOP( '', ( #270 ) );
#191 = AXIS2_PLACEMENT_3D( '', #271, #272, #273 );
#192 = SURFACE_SIDE_STYLE( '', ( #274 ) );
#193 = EDGE_LOOP( '', ( #275 ) );
#194 = EDGE_LOOP( '', ( #276 ) );
#195 = AXIS2_PLACEMENT_3D( '', #277, #278, #279 );
#196 = SURFACE_SIDE_STYLE( '', ( #280 ) );
#197 = EDGE_LOOP( '', ( #281 ) );
#198 = EDGE_LOOP( '', ( #282 ) );
#199 = AXIS2_PLACEMENT_3D( '', #283, #284, #285 );
#200 = SURFACE_SIDE_STYLE( '', ( #286 ) );
#201 = EDGE_LOOP( '', ( #287 ) );
#202 = EDGE_LOOP( '', ( #288 ) );
#203 = AXIS2_PLACEMENT_3D( '', #289, #290, #291 );
#204 = SURFACE_SIDE_STYLE( '', ( #292 ) );
#205 = EDGE_LOOP( '', ( #293 ) );
#206 = AXIS2_PLACEMENT_3D( '', #294, #295, #296 );
#207 = SURFACE_SIDE_STYLE( '', ( #297 ) );
#208 = EDGE_LOOP( '', ( #298 ) );
#209 = EDGE_LOOP( '', ( #299 ) );
#210 = AXIS2_PLACEMENT_3D( '', #300, #301, #302 );
#211 = SURFACE_SIDE_STYLE( '', ( #303 ) );
#212 = EDGE_LOOP( '', ( #304 ) );
#213 = EDGE_LOOP( '', ( #305 ) );
#214 = AXIS2_PLACEMENT_3D( '', #306, #307, #308 );
#215 = SURFACE_SIDE_STYLE( '', ( #309 ) );
#216 = EDGE_LOOP( '', ( #310 ) );
#217 = EDGE_LOOP( '', ( #311 ) );
#218 = AXIS2_PLACEMENT_3D( '', #312, #313, #314 );
#219 = SURFACE_SIDE_STYLE( '', ( #315 ) );
#220 = EDGE_LOOP( '', ( #316 ) );
#221 = EDGE_LOOP( '', ( #317 ) );
#222 = AXIS2_PLACEMENT_3D( '', #318, #319, #320 );
#223 = SURFACE_SIDE_STYLE( '', ( #321 ) );
#224 = EDGE_LOOP( '', ( #322 ) );
#225 = EDGE_LOOP( '', ( #323 ) );
#226 = AXIS2_PLACEMENT_3D( '', #324, #325, #326 );
#227 = SURFACE_SIDE_STYLE( '', ( #327 ) );
#228 = EDGE_LOOP( '', ( #328 ) );
#229 = EDGE_LOOP( '', ( #329 ) );
#230 = AXIS2_PLACEMENT_3D( '', #330, #331, #332 );
#231 = CLOSED_SHELL( '', ( #73, #49, #45 ) );
#233 = SURFACE_STYLE_FILL_AREA( #333 );
#234 = ORIENTED_EDGE( '', *, *, #334, .F. );
#235 = ORIENTED_EDGE( '', *, *, #335, .F. );
#236 = CARTESIAN_POINT( '', ( 0.000000000000000, 0.000000000000000, -0.200216975567747 ) );
#237 = DIRECTION( '', ( 0.000000000000000, 0.000000000000000, -1.00000000000000 ) );
#238 = DIRECTION( '', ( -1.00000000000000, 0.000000000000000, 0.000000000000000 ) );
#239 = SURFACE_STYLE_FILL_AREA( #336 );
#240 = ORIENTED_EDGE( '', *, *, #337, .T. );
#241 = CARTESIAN_POINT( '', ( -3.71761843391056E-031, -6.07153216591882E-015, 4.37121159586087 ) );
#242 = DIRECTION( '', ( 0.000000000000000, 0.000000000000000, 1.00000000000000 ) );
#243 = DIRECTION( '', ( 6.12303176911189E-017, 1.00000000000000, 0.000000000000000 ) );
#244 = SURFACE_STYLE_FILL_AREA( #338 );
#245 = ORIENTED_EDGE( '', *, *, #339, .F. );
#246 = ORIENTED_EDGE( '', *, *, #340, .T. );
#247 = CARTESIAN_POINT( '', ( 0.000000000000000, 0.000000000000000, 54.0000000000000 ) );
#248 = DIRECTION( '', ( -0.000000000000000, -0.000000000000000, -1.00000000000000 ) );
#249 = DIRECTION( '', ( 1.00000000000000, 0.000000000000000, 0.000000000000000 ) );
#250 = SURFACE_STYLE_FILL_AREA( #341 );
#251 = ORIENTED_EDGE( '', *, *, #334, .T. );
#252 = ORIENTED_EDGE( '', *, *, #342, .T. );
#253 = CARTESIAN_POINT( '', ( 0.000000000000000, 0.000000000000000, 5.99978302443225 ) );
#254 = DIRECTION( '', ( -0.000000000000000, -0.000000000000000, -1.00000000000000 ) );
#255 = DIRECTION( '', ( 1.00000000000000, 0.000000000000000, 0.000000000000000 ) );
#256 = SURFACE_STYLE_FILL_AREA( #343 );
#257 = ORIENTED_EDGE( '', *, *, #344, .F. );
#258 = ORIENTED_EDGE( '', *, *, #340, .F. );
#259 = CARTESIAN_POINT( '', ( 2.00000000000000, 0.000000000000000, 5.99978302443225 ) );
#260 = DIRECTION( '', ( 0.000000000000000, 0.000000000000000, -1.00000000000000 ) );
#261 = DIRECTION( '', ( -1.00000000000000, 0.000000000000000, 0.000000000000000 ) );
#262 = SURFACE_STYLE_FILL_AREA( #345 );
#263 = ORIENTED_EDGE( '', *, *, #346, .F. );
#264 = ORIENTED_EDGE( '', *, *, #347, .T. );
#265 = CARTESIAN_POINT( '', ( 9.62964972193618E-032, 8.67361737988404E-016, 7.19978302443225 ) );
#266 = DIRECTION( '', ( 0.000000000000000, 0.000000000000000, 1.00000000000000 ) );
#267 = DIRECTION( '', ( 1.00000000000000, 0.000000000000000, 0.000000000000000 ) );
#268 = SURFACE_STYLE_FILL_AREA( #348 );
#269 = ORIENTED_EDGE( '', *, *, #347, .F. );
#270 = ORIENTED_EDGE( '', *, *, #349, .T. );
#271 = CARTESIAN_POINT( '', ( 4.46981319145168E-016, 7.30000000000000, 6.99978302443225 ) );
#272 = DIRECTION( '', ( 0.000000000000000, 0.000000000000000, 1.00000000000000 ) );
#273 = DIRECTION( '', ( 1.00000000000000, 0.000000000000000, 0.000000000000000 ) );
#274 = SURFACE_STYLE_FILL_AREA( #350 );
#275 = ORIENTED_EDGE( '', *, *, #351, .F. );
#276 = ORIENTED_EDGE( '', *, *, #352, .T. );
#277 = CARTESIAN_POINT( '', ( 7.35646653897199E-032, 1.20144183737250E-015, 7.79978302443181 ) );
#278 = DIRECTION( '', ( -0.000000000000000, 0.000000000000000, -1.00000000000000 ) );
#279 = DIRECTION( '', ( -1.00000000000000, 0.000000000000000, 0.000000000000000 ) );
#280 = SURFACE_STYLE_FILL_AREA( #353 );
#281 = ORIENTED_EDGE( '', *, *, #354, .F. );
#282 = ORIENTED_EDGE( '', *, *, #342, .F. );
#283 = CARTESIAN_POINT( '', ( 0.000000000000000, 0.000000000000000, -14.0002169755677 ) );
#284 = DIRECTION( '', ( -0.000000000000000, -0.000000000000000, 1.00000000000000 ) );
#285 = DIRECTION( '', ( 1.00000000000000, 0.000000000000000, 0.000000000000000 ) );
#286 = SURFACE_STYLE_FILL_AREA( #355 );
#287 = ORIENTED_EDGE( '', *, *, #356, .F. );
#288 = ORIENTED_EDGE( '', *, *, #357, .F. );
#289 = CARTESIAN_POINT( '', ( 7.35646653897199E-032, 1.20144183737250E-015, 0.499783024432253 ) );
#290 = DIRECTION( '', ( 0.000000000000000, 0.000000000000000, 1.00000000000000 ) );
#291 = DIRECTION( '', ( 1.00000000000000, 0.000000000000000, 0.000000000000000 ) );
#292 = SURFACE_STYLE_FILL_AREA( #358 );
#293 = ORIENTED_EDGE( '', *, *, #354, .T. );
#294 = CARTESIAN_POINT( '', ( 1.22460635382238E-016, 2.00000000000000, -15.0002169755677 ) );
#295 = DIRECTION( '', ( 0.000000000000000, 0.000000000000000, -1.00000000000000 ) );
#296 = DIRECTION( '', ( -1.00000000000000, 0.000000000000000, 0.000000000000000 ) );
#297 = SURFACE_STYLE_FILL_AREA( #359 );
#298 = ORIENTED_EDGE( '', *, *, #356, .T. );
#299 = ORIENTED_EDGE( '', *, *, #335, .T. );
#300 = CARTESIAN_POINT( '', ( 3.36766747301154E-016, 5.50000000000000, -0.000216975567747177 ) );
#301 = DIRECTION( '', ( 0.000000000000000, 0.000000000000000, 1.00000000000000 ) );
#302 = DIRECTION( '', ( 1.00000000000000, 0.000000000000000, 0.000000000000000 ) );
#303 = SURFACE_STYLE_FILL_AREA( #360 );
#304 = ORIENTED_EDGE( '', *, *, #352, .F. );
#305 = ORIENTED_EDGE( '', *, *, #346, .T. );
#306 = CARTESIAN_POINT( '', ( 7.35646653897199E-032, 1.20144183737250E-015, 9.81084112149533 ) );
#307 = DIRECTION( '', ( -0.000000000000000, -0.000000000000000, -1.00000000000000 ) );
#308 = DIRECTION( '', ( 1.00000000000000, 0.000000000000000, 0.000000000000000 ) );
#309 = SURFACE_STYLE_FILL_AREA( #361 );
#310 = ORIENTED_EDGE( '', *, *, #357, .T. );
#311 = ORIENTED_EDGE( '', *, *, #349, .F. );
#312 = CARTESIAN_POINT( '', ( 7.35646653897199E-032, 1.20144183737250E-015, 9.81084112149533 ) );
#313 = DIRECTION( '', ( -0.000000000000000, -0.000000000000000, -1.00000000000000 ) );
#314 = DIRECTION( '', ( 1.00000000000000, 0.000000000000000, 0.000000000000000 ) );
#315 = SURFACE_STYLE_FILL_AREA( #362 );
#316 = ORIENTED_EDGE( '', *, *, #337, .F. );
#317 = ORIENTED_EDGE( '', *, *, #363, .T. );
#318 = CARTESIAN_POINT( '', ( 4.16437207343473E-016, 6.80116032459969, 12.5997830244323 ) );
#319 = DIRECTION( '', ( 0.000000000000000, 0.000000000000000, -1.00000000000000 ) );
#320 = DIRECTION( '', ( -1.00000000000000, 0.000000000000000, 0.000000000000000 ) );
#321 = SURFACE_STYLE_FILL_AREA( #364 );
#322 = ORIENTED_EDGE( '', *, *, #363, .F. );
#323 = ORIENTED_EDGE( '', *, *, #351, .T. );
#324 = CARTESIAN_POINT( '', ( 9.62964972193618E-032, 8.67361737988404E-016, 12.3997830244323 ) );
#325 = DIRECTION( '', ( 0.000000000000000, 0.000000000000000, 1.00000000000000 ) );
#326 = DIRECTION( '', ( 1.00000000000000, 0.000000000000000, 0.000000000000000 ) );
#327 = SURFACE_STYLE_FILL_AREA( #365 );
#328 = ORIENTED_EDGE( '', *, *, #339, .T. );
#329 = ORIENTED_EDGE( '', *, *, #344, .T. );
#330 = CARTESIAN_POINT( '', ( 0.000000000000000, 0.000000000000000, 5.99978302443225 ) );
#331 = DIRECTION( '', ( -0.000000000000000, 0.000000000000000, -1.00000000000000 ) );
#332 = DIRECTION( '', ( -1.00000000000000, 0.000000000000000, 0.000000000000000 ) );
#333 = FILL_AREA_STYLE( '', ( #366 ) );
#334 = EDGE_CURVE( '', #367, #367, #368, .T. );
#335 = EDGE_CURVE( '', #369, #369, #370, .F. );
#336 = FILL_AREA_STYLE( '', ( #371 ) );
#337 = EDGE_CURVE( '', #372, #372, #373, .T. );
#338 = FILL_AREA_STYLE( '', ( #374 ) );
#339 = EDGE_CURVE( '', #375, #375, #376, .F. );
#340 = EDGE_CURVE( '', #377, #377, #378, .T. );
#341 = FILL_AREA_STYLE( '', ( #379 ) );
#342 = EDGE_CURVE( '', #380, #380, #381, .F. );
#343 = FILL_AREA_STYLE( '', ( #382 ) );
#344 = EDGE_CURVE( '', #383, #383, #384, .T. );
#345 = FILL_AREA_STYLE( '', ( #385 ) );
#346 = EDGE_CURVE( '', #386, #386, #387, .T. );
#347 = EDGE_CURVE( '', #388, #388, #389, .T. );
#348 = FILL_AREA_STYLE( '', ( #390 ) );
#349 = EDGE_CURVE( '', #391, #391, #392, .T. );
#350 = FILL_AREA_STYLE( '', ( #393 ) );
#351 = EDGE_CURVE( '', #394, #394, #395, .T. );
#352 = EDGE_CURVE( '', #396, #396, #397, .T. );
#353 = FILL_AREA_STYLE( '', ( #398 ) );
#354 = EDGE_CURVE( '', #399, #399, #400, .T. );
#355 = FILL_AREA_STYLE( '', ( #401 ) );
#356 = EDGE_CURVE( '', #402, #402, #403, .F. );
#357 = EDGE_CURVE( '', #404, #404, #405, .T. );
#358 = FILL_AREA_STYLE( '', ( #406 ) );
#359 = FILL_AREA_STYLE( '', ( #407 ) );
#360 = FILL_AREA_STYLE( '', ( #408 ) );
#361 = FILL_AREA_STYLE( '', ( #409 ) );
#362 = FILL_AREA_STYLE( '', ( #410 ) );
#363 = EDGE_CURVE( '', #411, #411, #412, .T. );
#364 = FILL_AREA_STYLE( '', ( #413 ) );
#365 = FILL_AREA_STYLE( '', ( #414 ) );
#366 = FILL_AREA_STYLE_COLOUR( '', #415 );
#367 = VERTEX_POINT( '', #416 );
#368 = CIRCLE( '', #417, 2.00000000000000 );
#369 = VERTEX_POINT( '', #418 );
#370 = CIRCLE( '', #419, 2.20000000000000 );
#371 = FILL_AREA_STYLE_COLOUR( '', #420 );
#372 = VERTEX_POINT( '', #421 );
#373 = CIRCLE( '', #422, 5.00000000000000 );
#374 = FILL_AREA_STYLE_COLOUR( '', #423 );
#375 = VERTEX_POINT( '', #424 );
#376 = CIRCLE( '', #425, 2.00000000000000 );
#377 = VERTEX_POINT( '', #426 );
#378 = CIRCLE( '', #427, 2.00000000000000 );
#379 = FILL_AREA_STYLE_COLOUR( '', #428 );
#380 = VERTEX_POINT( '', #429 );
#381 = CIRCLE( '', #430, 2.00000000000000 );
#382 = FILL_AREA_STYLE_COLOUR( '', #431 );
#383 = VERTEX_POINT( '', #432 );
#384 = CIRCLE( '', #433, 1.20000000000000 );
#385 = FILL_AREA_STYLE_COLOUR( '', #434 );
#386 = VERTEX_POINT( '', #435 );
#387 = CIRCLE( '', #436, 7.50000000000000 );
#388 = VERTEX_POINT( '', #437 );
#389 = CIRCLE( '', #438, 7.30000000000000 );
#390 = FILL_AREA_STYLE_COLOUR( '', #439 );
#391 = VERTEX_POINT( '', #440 );
#392 = CIRCLE( '', #441, 5.50000000000000 );
#393 = FILL_AREA_STYLE_COLOUR( '', #442 );
#394 = VERTEX_POINT( '', #443 );
#395 = CIRCLE( '', #444, 7.00000000000000 );
#396 = VERTEX_POINT( '', #445 );
#397 = CIRCLE( '', #446, 7.50000000000000 );
#398 = FILL_AREA_STYLE_COLOUR( '', #447 );
#399 = VERTEX_POINT( '', #448 );
#400 = CIRCLE( '', #449, 1.00000000000000 );
#401 = FILL_AREA_STYLE_COLOUR( '', #450 );
#402 = VERTEX_POINT( '', #451 );
#403 = CIRCLE( '', #452, 5.00000000000000 );
#404 = VERTEX_POINT( '', #453 );
#405 = CIRCLE( '', #454, 5.50000000000000 );
#406 = FILL_AREA_STYLE_COLOUR( '', #455 );
#407 = FILL_AREA_STYLE_COLOUR( '', #456 );
#408 = FILL_AREA_STYLE_COLOUR( '', #457 );
#409 = FILL_AREA_STYLE_COLOUR( '', #458 );
#410 = FILL_AREA_STYLE_COLOUR( '', #459 );
#411 = VERTEX_POINT( '', #460 );
#412 = CIRCLE( '', #461, 6.80116032459969 );
#413 = FILL_AREA_STYLE_COLOUR( '', #462 );
#414 = FILL_AREA_STYLE_COLOUR( '', #463 );
#415 = COLOUR_RGB( '', 0.666666686534882, 0.733333349227905, 0.866666674613953 );
#416 = CARTESIAN_POINT( '', ( -2.00000000000000, 0.000000000000000, -0.200216975567747 ) );
#417 = AXIS2_PLACEMENT_3D( '', #464, #465, #466 );
#418 = CARTESIAN_POINT( '', ( -2.20000000000000, 0.000000000000000, -0.000216975567747068 ) );
#419 = AXIS2_PLACEMENT_3D( '', #467, #468, #469 );
#420 = COLOUR_RGB( '', 0.200000002980232, 0.200000002980232, 0.200000002980232 );
#421 = CARTESIAN_POINT( '', ( 5.00000000000000, 1.20144183737250E-015, 12.5997830244323 ) );
#422 = AXIS2_PLACEMENT_3D( '', #470, #471, #472 );
#423 = COLOUR_RGB( '', 0.200000002980232, 0.200000002980232, 0.200000002980232 );
#424 = CARTESIAN_POINT( '', ( -2.00000000000000, 0.000000000000000, 5.19978302443226 ) );
#425 = AXIS2_PLACEMENT_3D( '', #473, #474, #475 );
#426 = CARTESIAN_POINT( '', ( 2.00000000000000, 0.000000000000000, 5.99978302443225 ) );
#427 = AXIS2_PLACEMENT_3D( '', #476, #477, #478 );
#428 = COLOUR_RGB( '', 0.752941191196442, 0.752941191196442, 0.752941191196442 );
#429 = CARTESIAN_POINT( '', ( -2.00000000000000, 0.000000000000000, -14.0002169755677 ) );
#430 = AXIS2_PLACEMENT_3D( '', #479, #480, #481 );
#431 = COLOUR_RGB( '', 0.200000002980232, 0.200000002980232, 0.200000002980232 );
#432 = CARTESIAN_POINT( '', ( -1.20000000000000, 0.000000000000000, 5.99978302443225 ) );
#433 = AXIS2_PLACEMENT_3D( '', #482, #483, #484 );
#434 = COLOUR_RGB( '', 0.200000002980232, 0.200000002980232, 0.200000002980232 );
#435 = CARTESIAN_POINT( '', ( 7.50000000000000, 1.20144183737250E-015, 7.19978302443225 ) );
#436 = AXIS2_PLACEMENT_3D( '', #485, #486, #487 );
#437 = CARTESIAN_POINT( '', ( 7.30000000000000, 1.20144183737250E-015, 6.99978302443225 ) );
#438 = AXIS2_PLACEMENT_3D( '', #488, #489, #490 );
#439 = COLOUR_RGB( '', 0.200000002980232, 0.200000002980232, 0.200000002980232 );
#440 = CARTESIAN_POINT( '', ( 5.50000000000000, 1.20144183737250E-015, 6.99978302443225 ) );
#441 = AXIS2_PLACEMENT_3D( '', #491, #492, #493 );
#442 = COLOUR_RGB( '', 0.200000002980232, 0.200000002980232, 0.200000002980232 );
#443 = CARTESIAN_POINT( '', ( 7.00000000000000, 1.20144183737250E-015, 12.4212954275221 ) );
#444 = AXIS2_PLACEMENT_3D( '', #494, #495, #496 );
#445 = CARTESIAN_POINT( '', ( 7.50000000000000, 1.20144183737250E-015, 7.79978302443181 ) );
#446 = AXIS2_PLACEMENT_3D( '', #497, #498, #499 );
#447 = COLOUR_RGB( '', 0.666666686534882, 0.733333349227905, 0.866666674613953 );
#448 = CARTESIAN_POINT( '', ( -1.00000000000000, 0.000000000000000, -15.0002169755677 ) );
#449 = AXIS2_PLACEMENT_3D( '', #500, #501, #502 );
#450 = COLOUR_RGB( '', 0.200000002980232, 0.200000002980232, 0.200000002980232 );
#451 = CARTESIAN_POINT( '', ( 5.00000000000000, 1.20144183737250E-015, -0.000216975567747177 ) );
#452 = AXIS2_PLACEMENT_3D( '', #503, #504, #505 );
#453 = CARTESIAN_POINT( '', ( 5.50000000000000, 1.20144183737250E-015, 0.499783024432253 ) );
#454 = AXIS2_PLACEMENT_3D( '', #506, #507, #508 );
#455 = COLOUR_RGB( '', 0.666666686534882, 0.733333349227905, 0.866666674613953 );
#456 = COLOUR_RGB( '', 0.752941191196442, 0.752941191196442, 0.752941191196442 );
#457 = COLOUR_RGB( '', 0.200000002980232, 0.200000002980232, 0.200000002980232 );
#458 = COLOUR_RGB( '', 0.200000002980232, 0.200000002980232, 0.200000002980232 );
#459 = COLOUR_RGB( '', 0.200000002980232, 0.200000002980232, 0.200000002980232 );
#460 = CARTESIAN_POINT( '', ( 6.80116032459969, 1.20144183737250E-015, 12.5997830244323 ) );
#461 = AXIS2_PLACEMENT_3D( '', #509, #510, #511 );
#462 = COLOUR_RGB( '', 0.200000002980232, 0.200000002980232, 0.200000002980232 );
#463 = COLOUR_RGB( '', 0.666666686534882, 0.733333349227905, 0.866666674613953 );
#464 = CARTESIAN_POINT( '', ( 0.000000000000000, 0.000000000000000, -0.200216975567747 ) );
#465 = DIRECTION( '', ( 0.000000000000000, 0.000000000000000, -1.00000000000000 ) );
#466 = DIRECTION( '', ( -1.00000000000000, 0.000000000000000, 0.000000000000000 ) );
#467 = CARTESIAN_POINT( '', ( 0.000000000000000, 0.000000000000000, -0.000216975567747068 ) );
#468 = DIRECTION( '', ( 0.000000000000000, 0.000000000000000, -1.00000000000000 ) );
#469 = DIRECTION( '', ( -1.00000000000000, 0.000000000000000, 0.000000000000000 ) );
#470 = CARTESIAN_POINT( '', ( 7.35646653897199E-032, 1.20144183737250E-015, 12.5997830244323 ) );
#471 = DIRECTION( '', ( 0.000000000000000, 0.000000000000000, 1.00000000000000 ) );
#472 = DIRECTION( '', ( 1.00000000000000, 0.000000000000000, 0.000000000000000 ) );
#473 = CARTESIAN_POINT( '', ( 0.000000000000000, 0.000000000000000, 5.19978302443226 ) );
#474 = DIRECTION( '', ( 0.000000000000000, 0.000000000000000, -1.00000000000000 ) );
#475 = DIRECTION( '', ( -1.00000000000000, 0.000000000000000, 0.000000000000000 ) );
#476 = CARTESIAN_POINT( '', ( 0.000000000000000, 0.000000000000000, 5.99978302443225 ) );
#477 = DIRECTION( '', ( 0.000000000000000, 0.000000000000000, 1.00000000000000 ) );
#478 = DIRECTION( '', ( 1.00000000000000, 0.000000000000000, 0.000000000000000 ) );
#479 = CARTESIAN_POINT( '', ( 0.000000000000000, 0.000000000000000, -14.0002169755677 ) );
#480 = DIRECTION( '', ( 0.000000000000000, 0.000000000000000, -1.00000000000000 ) );
#481 = DIRECTION( '', ( -1.00000000000000, 0.000000000000000, 0.000000000000000 ) );
#482 = CARTESIAN_POINT( '', ( 0.000000000000000, 0.000000000000000, 5.99978302443225 ) );
#483 = DIRECTION( '', ( 0.000000000000000, 0.000000000000000, -1.00000000000000 ) );
#484 = DIRECTION( '', ( -1.00000000000000, 0.000000000000000, 0.000000000000000 ) );
#485 = CARTESIAN_POINT( '', ( 7.35646653897199E-032, 1.20144183737250E-015, 7.19978302443225 ) );
#486 = DIRECTION( '', ( 0.000000000000000, 0.000000000000000, 1.00000000000000 ) );
#487 = DIRECTION( '', ( 1.00000000000000, 0.000000000000000, 0.000000000000000 ) );
#488 = CARTESIAN_POINT( '', ( 7.35646653897199E-032, 1.20144183737250E-015, 6.99978302443225 ) );
#489 = DIRECTION( '', ( 0.000000000000000, 0.000000000000000, 1.00000000000000 ) );
#490 = DIRECTION( '', ( 1.00000000000000, 0.000000000000000, 0.000000000000000 ) );
#491 = CARTESIAN_POINT( '', ( 7.35646653897199E-032, 1.20144183737250E-015, 6.99978302443225 ) );
#492 = DIRECTION( '', ( 0.000000000000000, 0.000000000000000, 1.00000000000000 ) );
#493 = DIRECTION( '', ( 1.00000000000000, 0.000000000000000, 0.000000000000000 ) );
#494 = CARTESIAN_POINT( '', ( 7.35646653897199E-032, 1.20144183737250E-015, 12.4212954275221 ) );
#495 = DIRECTION( '', ( 0.000000000000000, 0.000000000000000, 1.00000000000000 ) );
#496 = DIRECTION( '', ( 1.00000000000000, 0.000000000000000, 0.000000000000000 ) );
#497 = CARTESIAN_POINT( '', ( 7.35646653897199E-032, 1.20144183737250E-015, 7.79978302443181 ) );
#498 = DIRECTION( '', ( 0.000000000000000, 0.000000000000000, 1.00000000000000 ) );
#499 = DIRECTION( '', ( 1.00000000000000, 0.000000000000000, 0.000000000000000 ) );
#500 = CARTESIAN_POINT( '', ( 0.000000000000000, 0.000000000000000, -15.0002169755677 ) );
#501 = DIRECTION( '', ( 0.000000000000000, 0.000000000000000, -1.00000000000000 ) );
#502 = DIRECTION( '', ( -1.00000000000000, 0.000000000000000, 0.000000000000000 ) );
#503 = CARTESIAN_POINT( '', ( 7.35646653897199E-032, 1.20144183737250E-015, -0.000216975567747177 ) );
#504 = DIRECTION( '', ( 0.000000000000000, 0.000000000000000, 1.00000000000000 ) );
#505 = DIRECTION( '', ( 1.00000000000000, 0.000000000000000, 0.000000000000000 ) );
#506 = CARTESIAN_POINT( '', ( 7.35646653897199E-032, 1.20144183737250E-015, 0.499783024432253 ) );
#507 = DIRECTION( '', ( 0.000000000000000, 0.000000000000000, 1.00000000000000 ) );
#508 = DIRECTION( '', ( 1.00000000000000, 0.000000000000000, 0.000000000000000 ) );
#509 = CARTESIAN_POINT( '', ( 7.35646653897199E-032, 1.20144183737250E-015, 12.5997830244323 ) );
#510 = DIRECTION( '', ( 0.000000000000000, 0.000000000000000, 1.00000000000000 ) );
#511 = DIRECTION( '', ( 1.00000000000000, 0.000000000000000, 0.000000000000000 ) );
ENDSEC;
END-ISO-10303-21;
