ISO-10303-21;
HEADER;
FILE_DESCRIPTION( ( 'Unknown' ), '1' );
FILE_NAME( '//SBS2003/HD_Usb/Disegni/10_GAMM_CD/2- Gamm_STEP/02 - VOLANTINI DI BLOCCAGGIO/02_26.2-ZB/6328005_ZB24_M06.stp', 'Unknown', ( 'Unknown' ), ( 'Unknown' ), 'PSStep 11.0', 'Unknown', '  ' );
FILE_SCHEMA( ( 'AUTOMOTIVE_DESIGN { 1 0 10303 214 1 1 1 1 }' ) );
ENDSEC;
DATA;
#1 = MECHANICAL_DESIGN_GEOMETRIC_PRESENTATION_REPRESENTATION( ' ', ( #10, #11, #12, #13, #14, #15, #16, #17, #18, #19, #20, #21, #22, #23 ), #6 );
#2 = PRODUCT_DEFINITION_CONTEXT( '', #24, 'design' );
#3 = APPLICATION_PROTOCOL_DEFINITION( 'INTERNATIONAL STANDARD', 'automotive_design', 2001, #24 );
#4 = PRODUCT_CATEGORY_RELATIONSHIP( 'NONE', 'NONE', #25, #26 );
#5 = SHAPE_DEFINITION_REPRESENTATION( #27, #28 );
#6 =  ( GEOMETRIC_REPRESENTATION_CONTEXT( 3 )GLOBAL_UNCERTAINTY_ASSIGNED_CONTEXT( ( #31 ) )GLOBAL_UNIT_ASSIGNED_CONTEXT( ( #33, #34, #35 ) )REPRESENTATION_CONTEXT( 'NONE', 'WORKSPACE' ) );
#10 = STYLED_ITEM( '', ( #37 ), #38 );
#11 = STYLED_ITEM( '', ( #39 ), #40 );
#12 = STYLED_ITEM( '', ( #41 ), #42 );
#13 = STYLED_ITEM( '', ( #43 ), #44 );
#14 = STYLED_ITEM( '', ( #45 ), #46 );
#15 = STYLED_ITEM( '', ( #47 ), #48 );
#16 = STYLED_ITEM( '', ( #49 ), #50 );
#17 = STYLED_ITEM( '', ( #51 ), #52 );
#18 = STYLED_ITEM( '', ( #53 ), #54 );
#19 = STYLED_ITEM( '', ( #55 ), #56 );
#20 = STYLED_ITEM( '', ( #57 ), #58 );
#21 = STYLED_ITEM( '', ( #59 ), #60 );
#22 = STYLED_ITEM( '', ( #61 ), #62 );
#23 = STYLED_ITEM( '', ( #63 ), #64 );
#24 = APPLICATION_CONTEXT( 'core data for automotive mechanical design processes' );
#25 = PRODUCT_CATEGORY( 'part', 'NONE' );
#26 = PRODUCT_RELATED_PRODUCT_CATEGORY( 'detail', ' ', ( #65 ) );
#27 = PRODUCT_DEFINITION_SHAPE( 'NONE', 'NONE', #66 );
#28 = ADVANCED_BREP_SHAPE_REPRESENTATION( '1801055', ( #67, #68 ), #6 );
#31 = UNCERTAINTY_MEASURE_WITH_UNIT( LENGTH_MEASURE( 0.00100000000000000 ), #33, '', '' );
#33 =  ( CONVERSION_BASED_UNIT( 'MILLIMETRE', #71 )LENGTH_UNIT(  )NAMED_UNIT( #74 ) );
#34 =  ( NAMED_UNIT( #76 )PLANE_ANGLE_UNIT(  )SI_UNIT( $, .RADIAN. ) );
#35 =  ( NAMED_UNIT( #76 )SI_UNIT( $, .STERADIAN. )SOLID_ANGLE_UNIT(  ) );
#37 = PRESENTATION_STYLE_ASSIGNMENT( ( #82 ) );
#38 = ADVANCED_FACE( '', ( #83, #84 ), #85, .T. );
#39 = PRESENTATION_STYLE_ASSIGNMENT( ( #86 ) );
#40 = ADVANCED_FACE( '', ( #87 ), #88, .T. );
#41 = PRESENTATION_STYLE_ASSIGNMENT( ( #89 ) );
#42 = ADVANCED_FACE( '', ( #90, #91 ), #92, .F. );
#43 = PRESENTATION_STYLE_ASSIGNMENT( ( #93 ) );
#44 = ADVANCED_FACE( '', ( #94, #95 ), #96, .F. );
#45 = PRESENTATION_STYLE_ASSIGNMENT( ( #97 ) );
#46 = ADVANCED_FACE( '', ( #98, #99 ), #100, .F. );
#47 = PRESENTATION_STYLE_ASSIGNMENT( ( #101 ) );
#48 = ADVANCED_FACE( '', ( #102, #103 ), #104, .T. );
#49 = PRESENTATION_STYLE_ASSIGNMENT( ( #105 ) );
#50 = ADVANCED_FACE( '', ( #106, #107 ), #108, .T. );
#51 = PRESENTATION_STYLE_ASSIGNMENT( ( #109 ) );
#52 = ADVANCED_FACE( '', ( #110, #111 ), #112, .F. );
#53 = PRESENTATION_STYLE_ASSIGNMENT( ( #113 ) );
#54 = ADVANCED_FACE( '', ( #114, #115 ), #116, .F. );
#55 = PRESENTATION_STYLE_ASSIGNMENT( ( #117 ) );
#56 = ADVANCED_FACE( '', ( #118, #119 ), #120, .F. );
#57 = PRESENTATION_STYLE_ASSIGNMENT( ( #121 ) );
#58 = ADVANCED_FACE( '', ( #122, #123 ), #124, .T. );
#59 = PRESENTATION_STYLE_ASSIGNMENT( ( #125 ) );
#60 = ADVANCED_FACE( '', ( #126, #127 ), #128, .F. );
#61 = PRESENTATION_STYLE_ASSIGNMENT( ( #129 ) );
#62 = ADVANCED_FACE( '', ( #130, #131 ), #132, .T. );
#63 = PRESENTATION_STYLE_ASSIGNMENT( ( #133 ) );
#64 = ADVANCED_FACE( '', ( #134, #135 ), #136, .F. );
#65 = PRODUCT( '1801055', '1801055', 'PART-1801055-DESC', ( #137 ) );
#66 = PRODUCT_DEFINITION( 'NONE', 'NONE', #138, #2 );
#67 = MANIFOLD_SOLID_BREP( '1801055', #139 );
#68 = AXIS2_PLACEMENT_3D( '', #140, #141, #142 );
#71 = LENGTH_MEASURE_WITH_UNIT( LENGTH_MEASURE( 1.00000000000000 ), #143 );
#74 = DIMENSIONAL_EXPONENTS( 1.00000000000000, 0.000000000000000, 0.000000000000000, 0.000000000000000, 0.000000000000000, 0.000000000000000, 0.000000000000000 );
#76 = DIMENSIONAL_EXPONENTS( 0.000000000000000, 0.000000000000000, 0.000000000000000, 0.000000000000000, 0.000000000000000, 0.000000000000000, 0.000000000000000 );
#82 = SURFACE_STYLE_USAGE( .BOTH., #144 );
#83 = FACE_OUTER_BOUND( '', #145, .T. );
#84 = FACE_OUTER_BOUND( '', #146, .T. );
#85 = TOROIDAL_SURFACE( '', #147, 6.78368627017630, 0.714669792936524 );
#86 = SURFACE_STYLE_USAGE( .BOTH., #148 );
#87 = FACE_OUTER_BOUND( '', #149, .T. );
#88 = SPHERICAL_SURFACE( '', #150, 23.4098837209303 );
#89 = SURFACE_STYLE_USAGE( .BOTH., #151 );
#90 = FACE_OUTER_BOUND( '', #152, .T. );
#91 = FACE_OUTER_BOUND( '', #153, .T. );
#92 = CYLINDRICAL_SURFACE( '', #154, 2.45850000000000 );
#93 = SURFACE_STYLE_USAGE( .BOTH., #155 );
#94 = FACE_OUTER_BOUND( '', #156, .T. );
#95 = FACE_OUTER_BOUND( '', #157, .T. );
#96 = TOROIDAL_SURFACE( '', #158, 7.94997438104527, 0.500000000000000 );
#97 = SURFACE_STYLE_USAGE( .BOTH., #159 );
#98 = FACE_BOUND( '', #160, .T. );
#99 = FACE_OUTER_BOUND( '', #161, .T. );
#100 = PLANE( '', #162 );
#101 = SURFACE_STYLE_USAGE( .BOTH., #163 );
#102 = FACE_BOUND( '', #164, .T. );
#103 = FACE_OUTER_BOUND( '', #165, .T. );
#104 = CONICAL_SURFACE( '', #166, 12.0000000000000, 0.0686990585718670 );
#105 = SURFACE_STYLE_USAGE( .BOTH., #167 );
#106 = FACE_OUTER_BOUND( '', #168, .T. );
#107 = FACE_OUTER_BOUND( '', #169, .T. );
#108 = TOROIDAL_SURFACE( '', #170, 11.4254717704758, 0.200000000000000 );
#109 = SURFACE_STYLE_USAGE( .BOTH., #171 );
#110 = FACE_BOUND( '', #172, .T. );
#111 = FACE_OUTER_BOUND( '', #173, .T. );
#112 = CONICAL_SURFACE( '', #174, 2.95850000000000, 0.785398163397448 );
#113 = SURFACE_STYLE_USAGE( .BOTH., #175 );
#114 = FACE_OUTER_BOUND( '', #176, .T. );
#115 = FACE_BOUND( '', #177, .T. );
#116 = CONICAL_SURFACE( '', #178, 2.45850000000000, 1.02974425867665 );
#117 = SURFACE_STYLE_USAGE( .BOTH., #179 );
#118 = FACE_OUTER_BOUND( '', #180, .T. );
#119 = FACE_BOUND( '', #181, .T. );
#120 = PLANE( '', #182 );
#121 = SURFACE_STYLE_USAGE( .BOTH., #183 );
#122 = FACE_OUTER_BOUND( '', #184, .T. );
#123 = FACE_OUTER_BOUND( '', #185, .T. );
#124 = TOROIDAL_SURFACE( '', #186, 11.8004717704753, 0.200000000000000 );
#125 = SURFACE_STYLE_USAGE( .BOTH., #187 );
#126 = FACE_OUTER_BOUND( '', #188, .T. );
#127 = FACE_OUTER_BOUND( '', #189, .T. );
#128 = CYLINDRICAL_SURFACE( '', #190, 2.45850000000000 );
#129 = SURFACE_STYLE_USAGE( .BOTH., #191 );
#130 = FACE_BOUND( '', #192, .T. );
#131 = FACE_OUTER_BOUND( '', #193, .T. );
#132 = CONICAL_SURFACE( '', #194, 7.49831944492668, 0.0101230773006360 );
#133 = SURFACE_STYLE_USAGE( .BOTH., #195 );
#134 = FACE_BOUND( '', #196, .T. );
#135 = FACE_OUTER_BOUND( '', #197, .T. );
#136 = PLANE( '', #198 );
#137 = PRODUCT_CONTEXT( '', #24, 'mechanical' );
#138 = PRODUCT_DEFINITION_FORMATION_WITH_SPECIFIED_SOURCE( ' ', 'NONE', #65, .NOT_KNOWN. );
#139 = CLOSED_SHELL( '', ( #38, #52, #54, #42, #64, #60, #62, #44, #56, #58, #48, #50, #46, #40 ) );
#140 = CARTESIAN_POINT( '', ( 0.000000000000000, 0.000000000000000, 0.000000000000000 ) );
#141 = DIRECTION( '', ( 0.000000000000000, 0.000000000000000, 1.00000000000000 ) );
#142 = DIRECTION( '', ( 1.00000000000000, 0.000000000000000, 0.000000000000000 ) );
#143 =  ( LENGTH_UNIT(  )NAMED_UNIT( #74 )SI_UNIT( .MILLI., .METRE. ) );
#144 = SURFACE_SIDE_STYLE( '', ( #200 ) );
#145 = EDGE_LOOP( '', ( #201 ) );
#146 = EDGE_LOOP( '', ( #202 ) );
#147 = AXIS2_PLACEMENT_3D( '', #203, #204, #205 );
#148 = SURFACE_SIDE_STYLE( '', ( #206 ) );
#149 = EDGE_LOOP( '', ( #207 ) );
#150 = AXIS2_PLACEMENT_3D( '', #208, #209, #210 );
#151 = SURFACE_SIDE_STYLE( '', ( #211 ) );
#152 = EDGE_LOOP( '', ( #212 ) );
#153 = EDGE_LOOP( '', ( #213 ) );
#154 = AXIS2_PLACEMENT_3D( '', #214, #215, #216 );
#155 = SURFACE_SIDE_STYLE( '', ( #217 ) );
#156 = EDGE_LOOP( '', ( #218 ) );
#157 = EDGE_LOOP( '', ( #219 ) );
#158 = AXIS2_PLACEMENT_3D( '', #220, #221, #222 );
#159 = SURFACE_SIDE_STYLE( '', ( #223 ) );
#160 = EDGE_LOOP( '', ( #224 ) );
#161 = EDGE_LOOP( '', ( #225 ) );
#162 = AXIS2_PLACEMENT_3D( '', #226, #227, #228 );
#163 = SURFACE_SIDE_STYLE( '', ( #229 ) );
#164 = EDGE_LOOP( '', ( #230 ) );
#165 = EDGE_LOOP( '', ( #231 ) );
#166 = AXIS2_PLACEMENT_3D( '', #232, #233, #234 );
#167 = SURFACE_SIDE_STYLE( '', ( #235 ) );
#168 = EDGE_LOOP( '', ( #236 ) );
#169 = EDGE_LOOP( '', ( #237 ) );
#170 = AXIS2_PLACEMENT_3D( '', #238, #239, #240 );
#171 = SURFACE_SIDE_STYLE( '', ( #241 ) );
#172 = EDGE_LOOP( '', ( #242 ) );
#173 = EDGE_LOOP( '', ( #243 ) );
#174 = AXIS2_PLACEMENT_3D( '', #244, #245, #246 );
#175 = SURFACE_SIDE_STYLE( '', ( #247 ) );
#176 = EDGE_LOOP( '', ( #248 ) );
#177 = VERTEX_LOOP( '', #249 );
#178 = AXIS2_PLACEMENT_3D( '', #250, #251, #252 );
#179 = SURFACE_SIDE_STYLE( '', ( #253 ) );
#180 = EDGE_LOOP( '', ( #254 ) );
#181 = EDGE_LOOP( '', ( #255 ) );
#182 = AXIS2_PLACEMENT_3D( '', #256, #257, #258 );
#183 = SURFACE_SIDE_STYLE( '', ( #259 ) );
#184 = EDGE_LOOP( '', ( #260 ) );
#185 = EDGE_LOOP( '', ( #261 ) );
#186 = AXIS2_PLACEMENT_3D( '', #262, #263, #264 );
#187 = SURFACE_SIDE_STYLE( '', ( #265 ) );
#188 = EDGE_LOOP( '', ( #266 ) );
#189 = EDGE_LOOP( '', ( #267 ) );
#190 = AXIS2_PLACEMENT_3D( '', #268, #269, #270 );
#191 = SURFACE_SIDE_STYLE( '', ( #271 ) );
#192 = EDGE_LOOP( '', ( #272 ) );
#193 = EDGE_LOOP( '', ( #273 ) );
#194 = AXIS2_PLACEMENT_3D( '', #274, #275, #276 );
#195 = SURFACE_SIDE_STYLE( '', ( #277 ) );
#196 = EDGE_LOOP( '', ( #278 ) );
#197 = EDGE_LOOP( '', ( #279 ) );
#198 = AXIS2_PLACEMENT_3D( '', #280, #281, #282 );
#200 = SURFACE_STYLE_FILL_AREA( #283 );
#201 = ORIENTED_EDGE( '', *, *, #284, .F. );
#202 = ORIENTED_EDGE( '', *, *, #285, .T. );
#203 = CARTESIAN_POINT( '', ( 0.000000000000000, 0.000000000000000, 0.714669792936528 ) );
#204 = DIRECTION( '', ( 0.000000000000000, 0.000000000000000, 1.00000000000000 ) );
#205 = DIRECTION( '', ( 1.00000000000000, 0.000000000000000, 0.000000000000000 ) );
#206 = SURFACE_STYLE_FILL_AREA( #286 );
#207 = ORIENTED_EDGE( '', *, *, #287, .T. );
#208 = CARTESIAN_POINT( '', ( 0.000000000000000, 0.000000000000000, -9.40988372093027 ) );
#209 = DIRECTION( '', ( 0.000000000000000, 0.000000000000000, 1.00000000000000 ) );
#210 = DIRECTION( '', ( 6.12303176911189E-017, 1.00000000000000, 0.000000000000000 ) );
#211 = SURFACE_STYLE_FILL_AREA( #288 );
#212 = ORIENTED_EDGE( '', *, *, #289, .T. );
#213 = ORIENTED_EDGE( '', *, *, #290, .F. );
#214 = CARTESIAN_POINT( '', ( 0.000000000000000, -1.08420217248550E-016, 3.81158727627215E-015 ) );
#215 = DIRECTION( '', ( -0.000000000000000, 0.000000000000000, -1.00000000000000 ) );
#216 = DIRECTION( '', ( 0.000000000000000, 1.00000000000000, 0.000000000000000 ) );
#217 = SURFACE_STYLE_FILL_AREA( #291 );
#218 = ORIENTED_EDGE( '', *, *, #292, .F. );
#219 = ORIENTED_EDGE( '', *, *, #293, .T. );
#220 = CARTESIAN_POINT( '', ( 0.000000000000000, 0.000000000000000, 5.50000000000000 ) );
#221 = DIRECTION( '', ( 0.000000000000000, 0.000000000000000, 1.00000000000000 ) );
#222 = DIRECTION( '', ( 1.00000000000000, 0.000000000000000, 0.000000000000000 ) );
#223 = SURFACE_STYLE_FILL_AREA( #294 );
#224 = ORIENTED_EDGE( '', *, *, #287, .F. );
#225 = ORIENTED_EDGE( '', *, *, #295, .T. );
#226 = CARTESIAN_POINT( '', ( 6.99585266277142E-016, 11.4254717704758, 11.8500000000000 ) );
#227 = DIRECTION( '', ( 0.000000000000000, 0.000000000000000, -1.00000000000000 ) );
#228 = DIRECTION( '', ( -1.00000000000000, 0.000000000000000, 0.000000000000000 ) );
#229 = SURFACE_STYLE_FILL_AREA( #296 );
#230 = ORIENTED_EDGE( '', *, *, #297, .F. );
#231 = ORIENTED_EDGE( '', *, *, #298, .T. );
#232 = CARTESIAN_POINT( '', ( -1.43568159340735E-043, -2.34472341079424E-027, 6.21372900661867 ) );
#233 = DIRECTION( '', ( -0.000000000000000, 0.000000000000000, -1.00000000000000 ) );
#234 = DIRECTION( '', ( -1.00000000000000, 0.000000000000000, 0.000000000000000 ) );
#235 = SURFACE_STYLE_FILL_AREA( #299 );
#236 = ORIENTED_EDGE( '', *, *, #295, .F. );
#237 = ORIENTED_EDGE( '', *, *, #297, .T. );
#238 = CARTESIAN_POINT( '', ( 0.000000000000000, 0.000000000000000, 11.6500000000000 ) );
#239 = DIRECTION( '', ( 0.000000000000000, 0.000000000000000, 1.00000000000000 ) );
#240 = DIRECTION( '', ( 1.00000000000000, 0.000000000000000, 0.000000000000000 ) );
#241 = SURFACE_STYLE_FILL_AREA( #300 );
#242 = ORIENTED_EDGE( '', *, *, #289, .F. );
#243 = ORIENTED_EDGE( '', *, *, #301, .F. );
#244 = CARTESIAN_POINT( '', ( 0.000000000000000, -1.08420217248550E-016, 3.81158727627215E-015 ) );
#245 = DIRECTION( '', ( -0.000000000000000, 0.000000000000000, -1.00000000000000 ) );
#246 = DIRECTION( '', ( -1.00000000000000, 0.000000000000000, 0.000000000000000 ) );
#247 = SURFACE_STYLE_FILL_AREA( #302 );
#248 = ORIENTED_EDGE( '', *, *, #303, .F. );
#249 = VERTEX_POINT( '', #304 );
#250 = CARTESIAN_POINT( '', ( 0.000000000000000, -1.08420217248550E-016, 9.02278416812075 ) );
#251 = DIRECTION( '', ( 0.000000000000000, -0.000000000000000, -1.00000000000000 ) );
#252 = DIRECTION( '', ( 0.000000000000000, -1.00000000000000, 0.000000000000000 ) );
#253 = SURFACE_STYLE_FILL_AREA( #305 );
#254 = ORIENTED_EDGE( '', *, *, #306, .F. );
#255 = ORIENTED_EDGE( '', *, *, #292, .T. );
#256 = CARTESIAN_POINT( '', ( 4.86779456987658E-016, 7.94997438104527, 6.00000000000000 ) );
#257 = DIRECTION( '', ( 0.000000000000000, 0.000000000000000, 1.00000000000000 ) );
#258 = DIRECTION( '', ( 1.00000000000000, 0.000000000000000, 0.000000000000000 ) );
#259 = SURFACE_STYLE_FILL_AREA( #307 );
#260 = ORIENTED_EDGE( '', *, *, #298, .F. );
#261 = ORIENTED_EDGE( '', *, *, #306, .T. );
#262 = CARTESIAN_POINT( '', ( 0.000000000000000, 0.000000000000000, 6.20000000000000 ) );
#263 = DIRECTION( '', ( 0.000000000000000, 0.000000000000000, 1.00000000000000 ) );
#264 = DIRECTION( '', ( 1.00000000000000, 0.000000000000000, 0.000000000000000 ) );
#265 = SURFACE_STYLE_FILL_AREA( #308 );
#266 = ORIENTED_EDGE( '', *, *, #303, .T. );
#267 = ORIENTED_EDGE( '', *, *, #290, .T. );
#268 = CARTESIAN_POINT( '', ( 0.000000000000000, -1.08420217248550E-016, 3.81158727627215E-015 ) );
#269 = DIRECTION( '', ( -0.000000000000000, 0.000000000000000, -1.00000000000000 ) );
#270 = DIRECTION( '', ( 0.000000000000000, 1.00000000000000, 0.000000000000000 ) );
#271 = SURFACE_STYLE_FILL_AREA( #309 );
#272 = ORIENTED_EDGE( '', *, *, #293, .F. );
#273 = ORIENTED_EDGE( '', *, *, #284, .T. );
#274 = CARTESIAN_POINT( '', ( -1.43568159340735E-043, -2.34472341079424E-027, 0.721904326931522 ) );
#275 = DIRECTION( '', ( -0.000000000000000, 0.000000000000000, -1.00000000000000 ) );
#276 = DIRECTION( '', ( -1.00000000000000, 0.000000000000000, 0.000000000000000 ) );
#277 = SURFACE_STYLE_FILL_AREA( #310 );
#278 = ORIENTED_EDGE( '', *, *, #301, .T. );
#279 = ORIENTED_EDGE( '', *, *, #285, .F. );
#280 = CARTESIAN_POINT( '', ( 1.85880921695529E-031, 3.03576608295941E-015, 3.81158727627215E-015 ) );
#281 = DIRECTION( '', ( 0.000000000000000, 0.000000000000000, 1.00000000000000 ) );
#282 = DIRECTION( '', ( 1.00000000000000, 0.000000000000000, 0.000000000000000 ) );
#283 = FILL_AREA_STYLE( '', ( #311 ) );
#284 = EDGE_CURVE( '', #312, #312, #313, .T. );
#285 = EDGE_CURVE( '', #314, #314, #315, .T. );
#286 = FILL_AREA_STYLE( '', ( #316 ) );
#287 = EDGE_CURVE( '', #317, #317, #318, .T. );
#288 = FILL_AREA_STYLE( '', ( #319 ) );
#289 = EDGE_CURVE( '', #320, #320, #321, .F. );
#290 = EDGE_CURVE( '', #322, #322, #323, .T. );
#291 = FILL_AREA_STYLE( '', ( #324 ) );
#292 = EDGE_CURVE( '', #325, #325, #326, .T. );
#293 = EDGE_CURVE( '', #327, #327, #328, .T. );
#294 = FILL_AREA_STYLE( '', ( #329 ) );
#295 = EDGE_CURVE( '', #330, #330, #331, .T. );
#296 = FILL_AREA_STYLE( '', ( #332 ) );
#297 = EDGE_CURVE( '', #333, #333, #334, .T. );
#298 = EDGE_CURVE( '', #335, #335, #336, .T. );
#299 = FILL_AREA_STYLE( '', ( #337 ) );
#300 = FILL_AREA_STYLE( '', ( #338 ) );
#301 = EDGE_CURVE( '', #339, #339, #340, .T. );
#302 = FILL_AREA_STYLE( '', ( #341 ) );
#303 = EDGE_CURVE( '', #342, #342, #343, .T. );
#304 = CARTESIAN_POINT( '', ( 0.000000000000000, -1.08420217248550E-016, 10.5000000000000 ) );
#305 = FILL_AREA_STYLE( '', ( #344 ) );
#306 = EDGE_CURVE( '', #345, #345, #346, .T. );
#307 = FILL_AREA_STYLE( '', ( #347 ) );
#308 = FILL_AREA_STYLE( '', ( #348 ) );
#309 = FILL_AREA_STYLE( '', ( #349 ) );
#310 = FILL_AREA_STYLE( '', ( #350 ) );
#311 = FILL_AREA_STYLE_COLOUR( '', #351 );
#312 = VERTEX_POINT( '', #352 );
#313 = CIRCLE( '', #353, 7.49831944492668 );
#314 = VERTEX_POINT( '', #354 );
#315 = CIRCLE( '', #355, 6.78368627017630 );
#316 = FILL_AREA_STYLE_COLOUR( '', #356 );
#317 = VERTEX_POINT( '', #357 );
#318 = CIRCLE( '', #358, 9.80000000000000 );
#319 = FILL_AREA_STYLE_COLOUR( '', #359 );
#320 = VERTEX_POINT( '', #360 );
#321 = CIRCLE( '', #361, 2.45850000000000 );
#322 = VERTEX_POINT( '', #362 );
#323 = CIRCLE( '', #363, 2.45850000000000 );
#324 = FILL_AREA_STYLE_COLOUR( '', #364 );
#325 = VERTEX_POINT( '', #365 );
#326 = CIRCLE( '', #366, 7.94997438104527 );
#327 = VERTEX_POINT( '', #367 );
#328 = CIRCLE( '', #368, 7.45000000000000 );
#329 = FILL_AREA_STYLE_COLOUR( '', #369 );
#330 = VERTEX_POINT( '', #370 );
#331 = CIRCLE( '', #371, 11.4254717704758 );
#332 = FILL_AREA_STYLE_COLOUR( '', #372 );
#333 = VERTEX_POINT( '', #373 );
#334 = CIRCLE( '', #374, 11.6250000000000 );
#335 = VERTEX_POINT( '', #375 );
#336 = CIRCLE( '', #376, 12.0000000000000 );
#337 = FILL_AREA_STYLE_COLOUR( '', #377 );
#338 = FILL_AREA_STYLE_COLOUR( '', #378 );
#339 = VERTEX_POINT( '', #379 );
#340 = CIRCLE( '', #380, 2.95850000000000 );
#341 = FILL_AREA_STYLE_COLOUR( '', #381 );
#342 = VERTEX_POINT( '', #382 );
#343 = CIRCLE( '', #383, 2.45850000000000 );
#344 = FILL_AREA_STYLE_COLOUR( '', #384 );
#345 = VERTEX_POINT( '', #385 );
#346 = CIRCLE( '', #386, 11.8004717704753 );
#347 = FILL_AREA_STYLE_COLOUR( '', #387 );
#348 = FILL_AREA_STYLE_COLOUR( '', #388 );
#349 = FILL_AREA_STYLE_COLOUR( '', #389 );
#350 = FILL_AREA_STYLE_COLOUR( '', #390 );
#351 = COLOUR_RGB( '', 0.200000002980232, 0.200000002980232, 0.200000002980232 );
#352 = CARTESIAN_POINT( '', ( 7.49831944492668, -2.34472341079424E-027, 0.721904326931522 ) );
#353 = AXIS2_PLACEMENT_3D( '', #391, #392, #393 );
#354 = CARTESIAN_POINT( '', ( 6.78368627017630, -2.34472341079424E-027, 3.46944695195362E-015 ) );
#355 = AXIS2_PLACEMENT_3D( '', #394, #395, #396 );
#356 = COLOUR_RGB( '', 0.200000002980232, 0.200000002980232, 0.200000002980232 );
#357 = CARTESIAN_POINT( '', ( 9.80000000000000, -2.34472341079424E-027, 11.8500000000000 ) );
#358 = AXIS2_PLACEMENT_3D( '', #397, #398, #399 );
#359 = COLOUR_RGB( '', 0.752941191196442, 0.752941191196442, 0.752941191196442 );
#360 = CARTESIAN_POINT( '', ( 2.45850000000000, -1.08420217248550E-016, 0.500000000000000 ) );
#361 = AXIS2_PLACEMENT_3D( '', #400, #401, #402 );
#362 = CARTESIAN_POINT( '', ( 0.000000000000000, 2.45850000000000, 8.50000000000000 ) );
#363 = AXIS2_PLACEMENT_3D( '', #403, #404, #405 );
#364 = COLOUR_RGB( '', 0.200000002980232, 0.200000002980232, 0.200000002980232 );
#365 = CARTESIAN_POINT( '', ( 7.94997438104527, -2.34472341079424E-027, 6.00000000000000 ) );
#366 = AXIS2_PLACEMENT_3D( '', #406, #407, #408 );
#367 = CARTESIAN_POINT( '', ( 7.45000000000000, -2.34472341079424E-027, 5.49493854779753 ) );
#368 = AXIS2_PLACEMENT_3D( '', #409, #410, #411 );
#369 = COLOUR_RGB( '', 0.200000002980232, 0.200000002980232, 0.200000002980232 );
#370 = CARTESIAN_POINT( '', ( 11.4254717704758, -2.34472341079424E-027, 11.8500000000000 ) );
#371 = AXIS2_PLACEMENT_3D( '', #412, #413, #414 );
#372 = COLOUR_RGB( '', 0.200000002980232, 0.200000002980232, 0.200000002980232 );
#373 = CARTESIAN_POINT( '', ( 11.6250000000000, -2.34472341079424E-027, 11.6637290066187 ) );
#374 = AXIS2_PLACEMENT_3D( '', #415, #416, #417 );
#375 = CARTESIAN_POINT( '', ( 12.0000000000000, -2.34472341079424E-027, 6.21372900661867 ) );
#376 = AXIS2_PLACEMENT_3D( '', #418, #419, #420 );
#377 = COLOUR_RGB( '', 0.200000002980232, 0.200000002980232, 0.200000002980232 );
#378 = COLOUR_RGB( '', 0.666666686534882, 0.400000005960464, 0.133333340287209 );
#379 = CARTESIAN_POINT( '', ( 2.95850000000000, -1.08420217248550E-016, 3.81158727627215E-015 ) );
#380 = AXIS2_PLACEMENT_3D( '', #421, #422, #423 );
#381 = COLOUR_RGB( '', 0.666666686534882, 0.400000005960464, 0.133333340287209 );
#382 = CARTESIAN_POINT( '', ( 0.000000000000000, -2.45850000000000, 9.02278416812075 ) );
#383 = AXIS2_PLACEMENT_3D( '', #424, #425, #426 );
#384 = COLOUR_RGB( '', 0.200000002980232, 0.200000002980232, 0.200000002980232 );
#385 = CARTESIAN_POINT( '', ( 11.8004717704753, -2.34472341079424E-027, 6.00000000000000 ) );
#386 = AXIS2_PLACEMENT_3D( '', #427, #428, #429 );
#387 = COLOUR_RGB( '', 0.200000002980232, 0.200000002980232, 0.200000002980232 );
#388 = COLOUR_RGB( '', 0.666666686534882, 0.400000005960464, 0.133333340287209 );
#389 = COLOUR_RGB( '', 0.200000002980232, 0.200000002980232, 0.200000002980232 );
#390 = COLOUR_RGB( '', 0.752941191196442, 0.752941191196442, 0.752941191196442 );
#391 = CARTESIAN_POINT( '', ( -1.43568159340735E-043, -2.34472341079424E-027, 0.721904326931522 ) );
#392 = DIRECTION( '', ( 0.000000000000000, 0.000000000000000, 1.00000000000000 ) );
#393 = DIRECTION( '', ( 1.00000000000000, 0.000000000000000, 0.000000000000000 ) );
#394 = CARTESIAN_POINT( '', ( -1.43568159340735E-043, -2.34472341079424E-027, 3.46944695195362E-015 ) );
#395 = DIRECTION( '', ( 0.000000000000000, 0.000000000000000, 1.00000000000000 ) );
#396 = DIRECTION( '', ( 1.00000000000000, 0.000000000000000, 0.000000000000000 ) );
#397 = CARTESIAN_POINT( '', ( -1.43568159340735E-043, -2.34472341079424E-027, 11.8500000000000 ) );
#398 = DIRECTION( '', ( 0.000000000000000, 0.000000000000000, 1.00000000000000 ) );
#399 = DIRECTION( '', ( 1.00000000000000, 0.000000000000000, 0.000000000000000 ) );
#400 = CARTESIAN_POINT( '', ( 0.000000000000000, -1.08420217248550E-016, 0.500000000000000 ) );
#401 = DIRECTION( '', ( 0.000000000000000, 0.000000000000000, 1.00000000000000 ) );
#402 = DIRECTION( '', ( 1.00000000000000, 0.000000000000000, 0.000000000000000 ) );
#403 = CARTESIAN_POINT( '', ( 0.000000000000000, -1.08420217248550E-016, 8.50000000000000 ) );
#404 = DIRECTION( '', ( 0.000000000000000, 0.000000000000000, -1.00000000000000 ) );
#405 = DIRECTION( '', ( 0.000000000000000, 1.00000000000000, 0.000000000000000 ) );
#406 = CARTESIAN_POINT( '', ( -1.43568159340735E-043, -2.34472341079424E-027, 6.00000000000000 ) );
#407 = DIRECTION( '', ( 0.000000000000000, 0.000000000000000, 1.00000000000000 ) );
#408 = DIRECTION( '', ( 1.00000000000000, 0.000000000000000, 0.000000000000000 ) );
#409 = CARTESIAN_POINT( '', ( -1.43568159340735E-043, -2.34472341079424E-027, 5.49493854779753 ) );
#410 = DIRECTION( '', ( 0.000000000000000, 0.000000000000000, 1.00000000000000 ) );
#411 = DIRECTION( '', ( 1.00000000000000, 0.000000000000000, 0.000000000000000 ) );
#412 = CARTESIAN_POINT( '', ( -1.43568159340735E-043, -2.34472341079424E-027, 11.8500000000000 ) );
#413 = DIRECTION( '', ( 0.000000000000000, 0.000000000000000, 1.00000000000000 ) );
#414 = DIRECTION( '', ( 1.00000000000000, 0.000000000000000, 0.000000000000000 ) );
#415 = CARTESIAN_POINT( '', ( -1.43568159340735E-043, -2.34472341079424E-027, 11.6637290066187 ) );
#416 = DIRECTION( '', ( 0.000000000000000, 0.000000000000000, 1.00000000000000 ) );
#417 = DIRECTION( '', ( 1.00000000000000, 0.000000000000000, 0.000000000000000 ) );
#418 = CARTESIAN_POINT( '', ( -1.43568159340735E-043, -2.34472341079424E-027, 6.21372900661867 ) );
#419 = DIRECTION( '', ( 0.000000000000000, 0.000000000000000, 1.00000000000000 ) );
#420 = DIRECTION( '', ( 1.00000000000000, 0.000000000000000, 0.000000000000000 ) );
#421 = CARTESIAN_POINT( '', ( 0.000000000000000, -1.08420217248550E-016, 3.81158727627215E-015 ) );
#422 = DIRECTION( '', ( 0.000000000000000, 0.000000000000000, 1.00000000000000 ) );
#423 = DIRECTION( '', ( 1.00000000000000, 0.000000000000000, 0.000000000000000 ) );
#424 = CARTESIAN_POINT( '', ( 0.000000000000000, -1.08420217248550E-016, 9.02278416812075 ) );
#425 = DIRECTION( '', ( 0.000000000000000, 0.000000000000000, 1.00000000000000 ) );
#426 = DIRECTION( '', ( 0.000000000000000, -1.00000000000000, 0.000000000000000 ) );
#427 = CARTESIAN_POINT( '', ( -1.43568159340735E-043, -2.34472341079424E-027, 6.00000000000000 ) );
#428 = DIRECTION( '', ( 0.000000000000000, 0.000000000000000, 1.00000000000000 ) );
#429 = DIRECTION( '', ( 1.00000000000000, 0.000000000000000, 0.000000000000000 ) );
ENDSEC;
END-ISO-10303-21;
