ISO-10303-21;
HEADER;
FILE_DESCRIPTION( ( 'Unknown' ), '1' );
FILE_NAME( '//SBS2003/HD_Usb/Disegni/10_GAMM_CD/2- Gamm_STEP/02 - VOLANTINI DI BLOCCAGGIO/02_26.2-ZB/6332000_ZB22_M04.stp', 'Unknown', ( 'Unknown' ), ( 'Unknown' ), 'PSStep 11.0', 'Unknown', '  ' );
FILE_SCHEMA( ( 'AUTOMOTIVE_DESIGN { 1 0 10303 214 1 1 1 1 }' ) );
ENDSEC;
DATA;
#1 = MECHANICAL_DESIGN_GEOMETRIC_PRESENTATION_REPRESENTATION( ' ', ( #10, #11, #12, #13, #14, #15, #16, #17, #18, #19, #20, #21, #22, #23 ), #6 );
#2 = PRODUCT_DEFINITION_CONTEXT( '', #24, 'design' );
#3 = APPLICATION_PROTOCOL_DEFINITION( 'INTERNATIONAL STANDARD', 'automotive_design', 2001, #24 );
#4 = PRODUCT_CATEGORY_RELATIONSHIP( 'NONE', 'NONE', #25, #26 );
#5 = SHAPE_DEFINITION_REPRESENTATION( #27, #28 );
#6 =  ( GEOMETRIC_REPRESENTATION_CONTEXT( 3 )GLOBAL_UNCERTAINTY_ASSIGNED_CONTEXT( ( #31 ) )GLOBAL_UNIT_ASSIGNED_CONTEXT( ( #33, #34, #35 ) )REPRESENTATION_CONTEXT( 'NONE', 'WORKSPACE' ) );
#10 = STYLED_ITEM( '', ( #37 ), #38 );
#11 = STYLED_ITEM( '', ( #39 ), #40 );
#12 = STYLED_ITEM( '', ( #41 ), #42 );
#13 = STYLED_ITEM( '', ( #43 ), #44 );
#14 = STYLED_ITEM( '', ( #45 ), #46 );
#15 = STYLED_ITEM( '', ( #47 ), #48 );
#16 = STYLED_ITEM( '', ( #49 ), #50 );
#17 = STYLED_ITEM( '', ( #51 ), #52 );
#18 = STYLED_ITEM( '', ( #53 ), #54 );
#19 = STYLED_ITEM( '', ( #55 ), #56 );
#20 = STYLED_ITEM( '', ( #57 ), #58 );
#21 = STYLED_ITEM( '', ( #59 ), #60 );
#22 = STYLED_ITEM( '', ( #61 ), #62 );
#23 = STYLED_ITEM( '', ( #63 ), #64 );
#24 = APPLICATION_CONTEXT( 'core data for automotive mechanical design processes' );
#25 = PRODUCT_CATEGORY( 'part', 'NONE' );
#26 = PRODUCT_RELATED_PRODUCT_CATEGORY( 'detail', ' ', ( #65 ) );
#27 = PRODUCT_DEFINITION_SHAPE( 'NONE', 'NONE', #66 );
#28 = ADVANCED_BREP_SHAPE_REPRESENTATION( '1801125', ( #67, #68 ), #6 );
#31 = UNCERTAINTY_MEASURE_WITH_UNIT( LENGTH_MEASURE( 0.00100000000000000 ), #33, '', '' );
#33 =  ( CONVERSION_BASED_UNIT( 'MILLIMETRE', #71 )LENGTH_UNIT(  )NAMED_UNIT( #74 ) );
#34 =  ( NAMED_UNIT( #76 )PLANE_ANGLE_UNIT(  )SI_UNIT( $, .RADIAN. ) );
#35 =  ( NAMED_UNIT( #76 )SI_UNIT( $, .STERADIAN. )SOLID_ANGLE_UNIT(  ) );
#37 = PRESENTATION_STYLE_ASSIGNMENT( ( #82 ) );
#38 = ADVANCED_FACE( '', ( #83, #84 ), #85, .F. );
#39 = PRESENTATION_STYLE_ASSIGNMENT( ( #86 ) );
#40 = ADVANCED_FACE( '', ( #87, #88 ), #89, .F. );
#41 = PRESENTATION_STYLE_ASSIGNMENT( ( #90 ) );
#42 = ADVANCED_FACE( '', ( #91, #92 ), #93, .F. );
#43 = PRESENTATION_STYLE_ASSIGNMENT( ( #94 ) );
#44 = ADVANCED_FACE( '', ( #95, #96 ), #97, .T. );
#45 = PRESENTATION_STYLE_ASSIGNMENT( ( #98 ) );
#46 = ADVANCED_FACE( '', ( #99 ), #100, .T. );
#47 = PRESENTATION_STYLE_ASSIGNMENT( ( #101 ) );
#48 = ADVANCED_FACE( '', ( #102, #103 ), #104, .T. );
#49 = PRESENTATION_STYLE_ASSIGNMENT( ( #105 ) );
#50 = ADVANCED_FACE( '', ( #106, #107 ), #108, .F. );
#51 = PRESENTATION_STYLE_ASSIGNMENT( ( #109 ) );
#52 = ADVANCED_FACE( '', ( #110, #111 ), #112, .F. );
#53 = PRESENTATION_STYLE_ASSIGNMENT( ( #113 ) );
#54 = ADVANCED_FACE( '', ( #114, #115 ), #116, .T. );
#55 = PRESENTATION_STYLE_ASSIGNMENT( ( #117 ) );
#56 = ADVANCED_FACE( '', ( #118, #119 ), #120, .F. );
#57 = PRESENTATION_STYLE_ASSIGNMENT( ( #121 ) );
#58 = ADVANCED_FACE( '', ( #122, #123 ), #124, .T. );
#59 = PRESENTATION_STYLE_ASSIGNMENT( ( #125 ) );
#60 = ADVANCED_FACE( '', ( #126, #127 ), #128, .T. );
#61 = PRESENTATION_STYLE_ASSIGNMENT( ( #129 ) );
#62 = ADVANCED_FACE( '', ( #130, #131 ), #132, .F. );
#63 = PRESENTATION_STYLE_ASSIGNMENT( ( #133 ) );
#64 = ADVANCED_FACE( '', ( #134, #135 ), #136, .T. );
#65 = PRODUCT( '1801125', '1801125', 'PART-1801125-DESC', ( #137 ) );
#66 = PRODUCT_DEFINITION( 'NONE', 'NONE', #138, #2 );
#67 = MANIFOLD_SOLID_BREP( '1801125', #139 );
#68 = AXIS2_PLACEMENT_3D( '', #140, #141, #142 );
#71 = LENGTH_MEASURE_WITH_UNIT( LENGTH_MEASURE( 1.00000000000000 ), #143 );
#74 = DIMENSIONAL_EXPONENTS( 1.00000000000000, 0.000000000000000, 0.000000000000000, 0.000000000000000, 0.000000000000000, 0.000000000000000, 0.000000000000000 );
#76 = DIMENSIONAL_EXPONENTS( 0.000000000000000, 0.000000000000000, 0.000000000000000, 0.000000000000000, 0.000000000000000, 0.000000000000000, 0.000000000000000 );
#82 = SURFACE_STYLE_USAGE( .BOTH., #144 );
#83 = FACE_OUTER_BOUND( '', #145, .T. );
#84 = FACE_BOUND( '', #146, .T. );
#85 = PLANE( '', #147 );
#86 = SURFACE_STYLE_USAGE( .BOTH., #148 );
#87 = FACE_OUTER_BOUND( '', #149, .T. );
#88 = FACE_OUTER_BOUND( '', #150, .T. );
#89 = CYLINDRICAL_SURFACE( '', #151, 1.62100000000000 );
#90 = SURFACE_STYLE_USAGE( .BOTH., #152 );
#91 = FACE_BOUND( '', #153, .T. );
#92 = FACE_OUTER_BOUND( '', #154, .T. );
#93 = CONICAL_SURFACE( '', #155, 2.12100000000000, 0.785398163397448 );
#94 = SURFACE_STYLE_USAGE( .BOTH., #156 );
#95 = FACE_BOUND( '', #157, .T. );
#96 = FACE_OUTER_BOUND( '', #158, .T. );
#97 = CONICAL_SURFACE( '', #159, 11.0000000000000, 0.167069314570506 );
#98 = SURFACE_STYLE_USAGE( .BOTH., #160 );
#99 = FACE_OUTER_BOUND( '', #161, .T. );
#100 = SPHERICAL_SURFACE( '', #162, 25.0000000000000 );
#101 = SURFACE_STYLE_USAGE( .BOTH., #163 );
#102 = FACE_BOUND( '', #164, .T. );
#103 = FACE_OUTER_BOUND( '', #165, .T. );
#104 = CONICAL_SURFACE( '', #166, 7.50000000000000, 0.0223516616638670 );
#105 = SURFACE_STYLE_USAGE( .BOTH., #167 );
#106 = FACE_BOUND( '', #168, .T. );
#107 = FACE_OUTER_BOUND( '', #169, .T. );
#108 = PLANE( '', #170 );
#109 = SURFACE_STYLE_USAGE( .BOTH., #171 );
#110 = FACE_BOUND( '', #172, .T. );
#111 = FACE_OUTER_BOUND( '', #173, .T. );
#112 = PLANE( '', #174 );
#113 = SURFACE_STYLE_USAGE( .BOTH., #175 );
#114 = FACE_OUTER_BOUND( '', #176, .T. );
#115 = FACE_OUTER_BOUND( '', #177, .T. );
#116 = TOROIDAL_SURFACE( '', #178, 10.8000000000000, 0.200000000000000 );
#117 = SURFACE_STYLE_USAGE( .BOTH., #179 );
#118 = FACE_OUTER_BOUND( '', #180, .T. );
#119 = FACE_OUTER_BOUND( '', #181, .T. );
#120 = TOROIDAL_SURFACE( '', #182, 7.57452568399531, 0.199575535567170 );
#121 = SURFACE_STYLE_USAGE( .BOTH., #183 );
#122 = FACE_OUTER_BOUND( '', #184, .T. );
#123 = FACE_OUTER_BOUND( '', #185, .T. );
#124 = TOROIDAL_SURFACE( '', #186, 7.30004995759797, 0.200000000000000 );
#125 = SURFACE_STYLE_USAGE( .BOTH., #187 );
#126 = FACE_OUTER_BOUND( '', #188, .T. );
#127 = FACE_OUTER_BOUND( '', #189, .T. );
#128 = CYLINDRICAL_SURFACE( '', #190, 11.0000000000000 );
#129 = SURFACE_STYLE_USAGE( .BOTH., #191 );
#130 = FACE_OUTER_BOUND( '', #192, .T. );
#131 = FACE_BOUND( '', #193, .T. );
#132 = CONICAL_SURFACE( '', #194, 1.62100000000000, 1.02974425867665 );
#133 = SURFACE_STYLE_USAGE( .BOTH., #195 );
#134 = FACE_OUTER_BOUND( '', #196, .T. );
#135 = FACE_OUTER_BOUND( '', #197, .T. );
#136 = TOROIDAL_SURFACE( '', #198, 9.85278472922095, 0.200000000000000 );
#137 = PRODUCT_CONTEXT( '', #24, 'mechanical' );
#138 = PRODUCT_DEFINITION_FORMATION_WITH_SPECIFIED_SOURCE( ' ', 'NONE', #65, .NOT_KNOWN. );
#139 = CLOSED_SHELL( '', ( #58, #42, #62, #40, #52, #48, #56, #38, #54, #60, #44, #64, #50, #46 ) );
#140 = CARTESIAN_POINT( '', ( 0.000000000000000, 0.000000000000000, 0.000000000000000 ) );
#141 = DIRECTION( '', ( 0.000000000000000, 0.000000000000000, 1.00000000000000 ) );
#142 = DIRECTION( '', ( 1.00000000000000, 0.000000000000000, 0.000000000000000 ) );
#143 =  ( LENGTH_UNIT(  )NAMED_UNIT( #74 )SI_UNIT( .MILLI., .METRE. ) );
#144 = SURFACE_SIDE_STYLE( '', ( #200 ) );
#145 = EDGE_LOOP( '', ( #201 ) );
#146 = EDGE_LOOP( '', ( #202 ) );
#147 = AXIS2_PLACEMENT_3D( '', #203, #204, #205 );
#148 = SURFACE_SIDE_STYLE( '', ( #206 ) );
#149 = EDGE_LOOP( '', ( #207 ) );
#150 = EDGE_LOOP( '', ( #208 ) );
#151 = AXIS2_PLACEMENT_3D( '', #209, #210, #211 );
#152 = SURFACE_SIDE_STYLE( '', ( #212 ) );
#153 = EDGE_LOOP( '', ( #213 ) );
#154 = EDGE_LOOP( '', ( #214 ) );
#155 = AXIS2_PLACEMENT_3D( '', #215, #216, #217 );
#156 = SURFACE_SIDE_STYLE( '', ( #218 ) );
#157 = EDGE_LOOP( '', ( #219 ) );
#158 = EDGE_LOOP( '', ( #220 ) );
#159 = AXIS2_PLACEMENT_3D( '', #221, #222, #223 );
#160 = SURFACE_SIDE_STYLE( '', ( #224 ) );
#161 = EDGE_LOOP( '', ( #225 ) );
#162 = AXIS2_PLACEMENT_3D( '', #226, #227, #228 );
#163 = SURFACE_SIDE_STYLE( '', ( #229 ) );
#164 = EDGE_LOOP( '', ( #230 ) );
#165 = EDGE_LOOP( '', ( #231 ) );
#166 = AXIS2_PLACEMENT_3D( '', #232, #233, #234 );
#167 = SURFACE_SIDE_STYLE( '', ( #235 ) );
#168 = EDGE_LOOP( '', ( #236 ) );
#169 = EDGE_LOOP( '', ( #237 ) );
#170 = AXIS2_PLACEMENT_3D( '', #238, #239, #240 );
#171 = SURFACE_SIDE_STYLE( '', ( #241 ) );
#172 = EDGE_LOOP( '', ( #242 ) );
#173 = EDGE_LOOP( '', ( #243 ) );
#174 = AXIS2_PLACEMENT_3D( '', #244, #245, #246 );
#175 = SURFACE_SIDE_STYLE( '', ( #247 ) );
#176 = EDGE_LOOP( '', ( #248 ) );
#177 = EDGE_LOOP( '', ( #249 ) );
#178 = AXIS2_PLACEMENT_3D( '', #250, #251, #252 );
#179 = SURFACE_SIDE_STYLE( '', ( #253 ) );
#180 = EDGE_LOOP( '', ( #254 ) );
#181 = EDGE_LOOP( '', ( #255 ) );
#182 = AXIS2_PLACEMENT_3D( '', #256, #257, #258 );
#183 = SURFACE_SIDE_STYLE( '', ( #259 ) );
#184 = EDGE_LOOP( '', ( #260 ) );
#185 = EDGE_LOOP( '', ( #261 ) );
#186 = AXIS2_PLACEMENT_3D( '', #262, #263, #264 );
#187 = SURFACE_SIDE_STYLE( '', ( #265 ) );
#188 = EDGE_LOOP( '', ( #266 ) );
#189 = EDGE_LOOP( '', ( #267 ) );
#190 = AXIS2_PLACEMENT_3D( '', #268, #269, #270 );
#191 = SURFACE_SIDE_STYLE( '', ( #271 ) );
#192 = EDGE_LOOP( '', ( #272 ) );
#193 = VERTEX_LOOP( '', #273 );
#194 = AXIS2_PLACEMENT_3D( '', #274, #275, #276 );
#195 = SURFACE_SIDE_STYLE( '', ( #277 ) );
#196 = EDGE_LOOP( '', ( #278 ) );
#197 = EDGE_LOOP( '', ( #279 ) );
#198 = AXIS2_PLACEMENT_3D( '', #280, #281, #282 );
#200 = SURFACE_STYLE_FILL_AREA( #283 );
#201 = ORIENTED_EDGE( '', *, *, #284, .F. );
#202 = ORIENTED_EDGE( '', *, *, #285, .T. );
#203 = CARTESIAN_POINT( '', ( 6.61287431064084E-016, 10.8000000000000, 5.99978302443226 ) );
#204 = DIRECTION( '', ( 0.000000000000000, 0.000000000000000, 1.00000000000000 ) );
#205 = DIRECTION( '', ( 1.00000000000000, 0.000000000000000, 0.000000000000000 ) );
#206 = SURFACE_STYLE_FILL_AREA( #286 );
#207 = ORIENTED_EDGE( '', *, *, #287, .T. );
#208 = ORIENTED_EDGE( '', *, *, #288, .T. );
#209 = CARTESIAN_POINT( '', ( -3.85185988877447E-031, 1.20144183737250E-015, -0.000216975567745115 ) );
#210 = DIRECTION( '', ( -0.000000000000000, 0.000000000000000, -1.00000000000000 ) );
#211 = DIRECTION( '', ( 0.000000000000000, 1.00000000000000, 0.000000000000000 ) );
#212 = SURFACE_STYLE_FILL_AREA( #289 );
#213 = ORIENTED_EDGE( '', *, *, #287, .F. );
#214 = ORIENTED_EDGE( '', *, *, #290, .F. );
#215 = CARTESIAN_POINT( '', ( -3.85185988877447E-031, 1.20144183737250E-015, -0.000216975567745115 ) );
#216 = DIRECTION( '', ( -0.000000000000000, 0.000000000000000, -1.00000000000000 ) );
#217 = DIRECTION( '', ( -1.00000000000000, 0.000000000000000, 0.000000000000000 ) );
#218 = SURFACE_STYLE_FILL_AREA( #291 );
#219 = ORIENTED_EDGE( '', *, *, #292, .F. );
#220 = ORIENTED_EDGE( '', *, *, #293, .T. );
#221 = CARTESIAN_POINT( '', ( 7.35646653897199E-032, 1.20144183737250E-015, 6.79978302443226 ) );
#222 = DIRECTION( '', ( -0.000000000000000, 0.000000000000000, -1.00000000000000 ) );
#223 = DIRECTION( '', ( -1.00000000000000, 0.000000000000000, 0.000000000000000 ) );
#224 = SURFACE_STYLE_FILL_AREA( #294 );
#225 = ORIENTED_EDGE( '', *, *, #295, .T. );
#226 = CARTESIAN_POINT( '', ( 1.34971091912675E-031, 2.20431800784617E-015, -11.0002169755677 ) );
#227 = DIRECTION( '', ( 0.000000000000000, 0.000000000000000, 1.00000000000000 ) );
#228 = DIRECTION( '', ( 6.12303176911189E-017, 1.00000000000000, 0.000000000000000 ) );
#229 = SURFACE_STYLE_FILL_AREA( #296 );
#230 = ORIENTED_EDGE( '', *, *, #297, .F. );
#231 = ORIENTED_EDGE( '', *, *, #298, .T. );
#232 = CARTESIAN_POINT( '', ( 7.35646653897199E-032, 1.20144183737250E-015, 0.204252984547043 ) );
#233 = DIRECTION( '', ( -0.000000000000000, 0.000000000000000, -1.00000000000000 ) );
#234 = DIRECTION( '', ( -1.00000000000000, 0.000000000000000, 0.000000000000000 ) );
#235 = SURFACE_STYLE_FILL_AREA( #299 );
#236 = ORIENTED_EDGE( '', *, *, #295, .F. );
#237 = ORIENTED_EDGE( '', *, *, #300, .T. );
#238 = CARTESIAN_POINT( '', ( 6.03289139112403E-016, 9.85278472922095, 12.5997830244323 ) );
#239 = DIRECTION( '', ( 0.000000000000000, 0.000000000000000, -1.00000000000000 ) );
#240 = DIRECTION( '', ( -1.00000000000000, 0.000000000000000, 0.000000000000000 ) );
#241 = SURFACE_STYLE_FILL_AREA( #301 );
#242 = ORIENTED_EDGE( '', *, *, #290, .T. );
#243 = ORIENTED_EDGE( '', *, *, #302, .F. );
#244 = CARTESIAN_POINT( '', ( -1.46196232411768E-031, 4.99614944107177E-015, -0.000216975567745115 ) );
#245 = DIRECTION( '', ( 0.000000000000000, 0.000000000000000, 1.00000000000000 ) );
#246 = DIRECTION( '', ( 1.00000000000000, 0.000000000000000, 0.000000000000000 ) );
#247 = SURFACE_STYLE_FILL_AREA( #303 );
#248 = ORIENTED_EDGE( '', *, *, #304, .F. );
#249 = ORIENTED_EDGE( '', *, *, #284, .T. );
#250 = CARTESIAN_POINT( '', ( 9.62964972193618E-032, 1.73472347597680E-015, 6.19978302443226 ) );
#251 = DIRECTION( '', ( 0.000000000000000, 0.000000000000000, 1.00000000000000 ) );
#252 = DIRECTION( '', ( 1.00000000000000, 0.000000000000000, 0.000000000000000 ) );
#253 = SURFACE_STYLE_FILL_AREA( #305 );
#254 = ORIENTED_EDGE( '', *, *, #285, .F. );
#255 = ORIENTED_EDGE( '', *, *, #297, .T. );
#256 = CARTESIAN_POINT( '', ( 9.62964972193618E-032, 8.67361737988404E-016, 5.80020748886509 ) );
#257 = DIRECTION( '', ( 0.000000000000000, 0.000000000000000, 1.00000000000000 ) );
#258 = DIRECTION( '', ( 1.00000000000000, 0.000000000000000, 0.000000000000000 ) );
#259 = SURFACE_STYLE_FILL_AREA( #306 );
#260 = ORIENTED_EDGE( '', *, *, #298, .F. );
#261 = ORIENTED_EDGE( '', *, *, #302, .T. );
#262 = CARTESIAN_POINT( '', ( 9.62964972193618E-032, 8.67361737988404E-016, 0.199783024432255 ) );
#263 = DIRECTION( '', ( 0.000000000000000, 0.000000000000000, 1.00000000000000 ) );
#264 = DIRECTION( '', ( 1.00000000000000, 0.000000000000000, 0.000000000000000 ) );
#265 = SURFACE_STYLE_FILL_AREA( #307 );
#266 = ORIENTED_EDGE( '', *, *, #293, .F. );
#267 = ORIENTED_EDGE( '', *, *, #304, .T. );
#268 = CARTESIAN_POINT( '', ( 7.35646653897199E-032, 1.20144183737250E-015, 9.81084112149533 ) );
#269 = DIRECTION( '', ( -0.000000000000000, -0.000000000000000, -1.00000000000000 ) );
#270 = DIRECTION( '', ( 1.00000000000000, 0.000000000000000, 0.000000000000000 ) );
#271 = SURFACE_STYLE_FILL_AREA( #308 );
#272 = ORIENTED_EDGE( '', *, *, #288, .F. );
#273 = VERTEX_POINT( '', #309 );
#274 = CARTESIAN_POINT( '', ( -3.85185988877447E-031, 1.20144183737250E-015, 9.52578796098858 ) );
#275 = DIRECTION( '', ( 0.000000000000000, -0.000000000000000, -1.00000000000000 ) );
#276 = DIRECTION( '', ( 0.000000000000000, -1.00000000000000, 0.000000000000000 ) );
#277 = SURFACE_STYLE_FILL_AREA( #310 );
#278 = ORIENTED_EDGE( '', *, *, #300, .F. );
#279 = ORIENTED_EDGE( '', *, *, #292, .T. );
#280 = CARTESIAN_POINT( '', ( 9.62964972193618E-032, 1.73472347597680E-015, 12.3997830244323 ) );
#281 = DIRECTION( '', ( 0.000000000000000, 0.000000000000000, 1.00000000000000 ) );
#282 = DIRECTION( '', ( 1.00000000000000, 0.000000000000000, 0.000000000000000 ) );
#283 = FILL_AREA_STYLE( '', ( #311 ) );
#284 = EDGE_CURVE( '', #312, #312, #313, .T. );
#285 = EDGE_CURVE( '', #314, #314, #315, .T. );
#286 = FILL_AREA_STYLE( '', ( #316 ) );
#287 = EDGE_CURVE( '', #317, #317, #318, .F. );
#288 = EDGE_CURVE( '', #319, #319, #320, .T. );
#289 = FILL_AREA_STYLE( '', ( #321 ) );
#290 = EDGE_CURVE( '', #322, #322, #323, .T. );
#291 = FILL_AREA_STYLE( '', ( #324 ) );
#292 = EDGE_CURVE( '', #325, #325, #326, .T. );
#293 = EDGE_CURVE( '', #327, #327, #328, .T. );
#294 = FILL_AREA_STYLE( '', ( #329 ) );
#295 = EDGE_CURVE( '', #330, #330, #331, .T. );
#296 = FILL_AREA_STYLE( '', ( #332 ) );
#297 = EDGE_CURVE( '', #333, #333, #334, .T. );
#298 = EDGE_CURVE( '', #335, #335, #336, .T. );
#299 = FILL_AREA_STYLE( '', ( #337 ) );
#300 = EDGE_CURVE( '', #338, #338, #339, .T. );
#301 = FILL_AREA_STYLE( '', ( #340 ) );
#302 = EDGE_CURVE( '', #341, #341, #342, .T. );
#303 = FILL_AREA_STYLE( '', ( #343 ) );
#304 = EDGE_CURVE( '', #344, #344, #345, .T. );
#305 = FILL_AREA_STYLE( '', ( #346 ) );
#306 = FILL_AREA_STYLE( '', ( #347 ) );
#307 = FILL_AREA_STYLE( '', ( #348 ) );
#308 = FILL_AREA_STYLE( '', ( #349 ) );
#309 = CARTESIAN_POINT( '', ( -3.85185988877447E-031, 1.20144183737250E-015, 10.4997830244323 ) );
#310 = FILL_AREA_STYLE( '', ( #350 ) );
#311 = FILL_AREA_STYLE_COLOUR( '', #351 );
#312 = VERTEX_POINT( '', #352 );
#313 = CIRCLE( '', #353, 10.8000000000000 );
#314 = VERTEX_POINT( '', #354 );
#315 = CIRCLE( '', #355, 7.57452568399531 );
#316 = FILL_AREA_STYLE_COLOUR( '', #356 );
#317 = VERTEX_POINT( '', #357 );
#318 = CIRCLE( '', #358, 1.62100000000000 );
#319 = VERTEX_POINT( '', #359 );
#320 = CIRCLE( '', #360, 1.62100000000000 );
#321 = FILL_AREA_STYLE_COLOUR( '', #361 );
#322 = VERTEX_POINT( '', #362 );
#323 = CIRCLE( '', #363, 2.12100000000000 );
#324 = FILL_AREA_STYLE_COLOUR( '', #364 );
#325 = VERTEX_POINT( '', #365 );
#326 = CIRCLE( '', #366, 10.0500000000000 );
#327 = VERTEX_POINT( '', #367 );
#328 = CIRCLE( '', #368, 11.0000000000000 );
#329 = FILL_AREA_STYLE_COLOUR( '', #369 );
#330 = VERTEX_POINT( '', #370 );
#331 = CIRCLE( '', #371, 8.24863625092051 );
#332 = FILL_AREA_STYLE_COLOUR( '', #372 );
#333 = VERTEX_POINT( '', #373 );
#334 = CIRCLE( '', #374, 7.37500000000000 );
#335 = VERTEX_POINT( '', #375 );
#336 = CIRCLE( '', #376, 7.50000000000000 );
#337 = FILL_AREA_STYLE_COLOUR( '', #377 );
#338 = VERTEX_POINT( '', #378 );
#339 = CIRCLE( '', #379, 9.85278472922095 );
#340 = FILL_AREA_STYLE_COLOUR( '', #380 );
#341 = VERTEX_POINT( '', #381 );
#342 = CIRCLE( '', #382, 7.30004995759797 );
#343 = FILL_AREA_STYLE_COLOUR( '', #383 );
#344 = VERTEX_POINT( '', #384 );
#345 = CIRCLE( '', #385, 11.0000000000000 );
#346 = FILL_AREA_STYLE_COLOUR( '', #386 );
#347 = FILL_AREA_STYLE_COLOUR( '', #387 );
#348 = FILL_AREA_STYLE_COLOUR( '', #388 );
#349 = FILL_AREA_STYLE_COLOUR( '', #389 );
#350 = FILL_AREA_STYLE_COLOUR( '', #390 );
#351 = COLOUR_RGB( '', 0.200000002980232, 0.200000002980232, 0.200000002980232 );
#352 = CARTESIAN_POINT( '', ( 10.8000000000000, 1.20144183737250E-015, 5.99978302443226 ) );
#353 = AXIS2_PLACEMENT_3D( '', #391, #392, #393 );
#354 = CARTESIAN_POINT( '', ( 7.57452568399531, 1.20144183737250E-015, 5.99978302443226 ) );
#355 = AXIS2_PLACEMENT_3D( '', #394, #395, #396 );
#356 = COLOUR_RGB( '', 0.752941191196442, 0.752941191196442, 0.752941191196442 );
#357 = CARTESIAN_POINT( '', ( 1.62100000000000, 1.20144183737250E-015, 0.499783024432255 ) );
#358 = AXIS2_PLACEMENT_3D( '', #397, #398, #399 );
#359 = CARTESIAN_POINT( '', ( -3.85185988877447E-031, -1.62100000000000, 9.52578796098858 ) );
#360 = AXIS2_PLACEMENT_3D( '', #400, #401, #402 );
#361 = COLOUR_RGB( '', 0.666666686534882, 0.400000005960464, 0.133333340287209 );
#362 = CARTESIAN_POINT( '', ( 2.12100000000000, 1.20144183737250E-015, -0.000216975567745115 ) );
#363 = AXIS2_PLACEMENT_3D( '', #403, #404, #405 );
#364 = COLOUR_RGB( '', 0.200000002980232, 0.200000002980232, 0.200000002980232 );
#365 = CARTESIAN_POINT( '', ( 10.0500000000000, 1.20144183737250E-015, 12.4330416619802 ) );
#366 = AXIS2_PLACEMENT_3D( '', #406, #407, #408 );
#367 = CARTESIAN_POINT( '', ( 11.0000000000000, 1.20144183737250E-015, 6.79978302443226 ) );
#368 = AXIS2_PLACEMENT_3D( '', #409, #410, #411 );
#369 = COLOUR_RGB( '', 0.200000002980232, 0.200000002980232, 0.200000002980232 );
#370 = CARTESIAN_POINT( '', ( 8.24863625092051, 1.20144183737250E-015, 12.5997830244323 ) );
#371 = AXIS2_PLACEMENT_3D( '', #412, #413, #414 );
#372 = COLOUR_RGB( '', 0.200000002980232, 0.200000002980232, 0.200000002980232 );
#373 = CARTESIAN_POINT( '', ( 7.37500000000000, 1.20144183737250E-015, 5.79574701544571 ) );
#374 = AXIS2_PLACEMENT_3D( '', #415, #416, #417 );
#375 = CARTESIAN_POINT( '', ( 7.50000000000000, 1.20144183737250E-015, 0.204252984547043 ) );
#376 = AXIS2_PLACEMENT_3D( '', #418, #419, #420 );
#377 = COLOUR_RGB( '', 0.200000002980232, 0.200000002980232, 0.200000002980232 );
#378 = CARTESIAN_POINT( '', ( 9.85278472922095, 1.20144183737250E-015, 12.5997830244323 ) );
#379 = AXIS2_PLACEMENT_3D( '', #421, #422, #423 );
#380 = COLOUR_RGB( '', 0.752941191196442, 0.752941191196442, 0.752941191196442 );
#381 = CARTESIAN_POINT( '', ( 7.30004995759797, 1.20144183737250E-015, -0.000216975567745442 ) );
#382 = AXIS2_PLACEMENT_3D( '', #424, #425, #426 );
#383 = COLOUR_RGB( '', 0.200000002980232, 0.200000002980232, 0.200000002980232 );
#384 = CARTESIAN_POINT( '', ( 11.0000000000000, 1.20144183737250E-015, 6.19978302443226 ) );
#385 = AXIS2_PLACEMENT_3D( '', #427, #428, #429 );
#386 = COLOUR_RGB( '', 0.200000002980232, 0.200000002980232, 0.200000002980232 );
#387 = COLOUR_RGB( '', 0.200000002980232, 0.200000002980232, 0.200000002980232 );
#388 = COLOUR_RGB( '', 0.200000002980232, 0.200000002980232, 0.200000002980232 );
#389 = COLOUR_RGB( '', 0.666666686534882, 0.400000005960464, 0.133333340287209 );
#390 = COLOUR_RGB( '', 0.200000002980232, 0.200000002980232, 0.200000002980232 );
#391 = CARTESIAN_POINT( '', ( 7.35646653897199E-032, 1.20144183737250E-015, 5.99978302443226 ) );
#392 = DIRECTION( '', ( 0.000000000000000, 0.000000000000000, 1.00000000000000 ) );
#393 = DIRECTION( '', ( 1.00000000000000, 0.000000000000000, 0.000000000000000 ) );
#394 = CARTESIAN_POINT( '', ( 7.35646653897199E-032, 1.20144183737250E-015, 5.99978302443226 ) );
#395 = DIRECTION( '', ( 0.000000000000000, 0.000000000000000, 1.00000000000000 ) );
#396 = DIRECTION( '', ( 1.00000000000000, 0.000000000000000, 0.000000000000000 ) );
#397 = CARTESIAN_POINT( '', ( -3.85185988877447E-031, 1.20144183737250E-015, 0.499783024432255 ) );
#398 = DIRECTION( '', ( 0.000000000000000, 0.000000000000000, 1.00000000000000 ) );
#399 = DIRECTION( '', ( 1.00000000000000, 0.000000000000000, 0.000000000000000 ) );
#400 = CARTESIAN_POINT( '', ( -3.85185988877447E-031, 1.20144183737250E-015, 9.52578796098858 ) );
#401 = DIRECTION( '', ( 0.000000000000000, 0.000000000000000, 1.00000000000000 ) );
#402 = DIRECTION( '', ( 0.000000000000000, -1.00000000000000, 0.000000000000000 ) );
#403 = CARTESIAN_POINT( '', ( -3.85185988877447E-031, 1.20144183737250E-015, -0.000216975567745115 ) );
#404 = DIRECTION( '', ( 0.000000000000000, 0.000000000000000, 1.00000000000000 ) );
#405 = DIRECTION( '', ( 1.00000000000000, 0.000000000000000, 0.000000000000000 ) );
#406 = CARTESIAN_POINT( '', ( 7.35646653897199E-032, 1.20144183737250E-015, 12.4330416619802 ) );
#407 = DIRECTION( '', ( 0.000000000000000, 0.000000000000000, 1.00000000000000 ) );
#408 = DIRECTION( '', ( 1.00000000000000, 0.000000000000000, 0.000000000000000 ) );
#409 = CARTESIAN_POINT( '', ( 7.35646653897199E-032, 1.20144183737250E-015, 6.79978302443226 ) );
#410 = DIRECTION( '', ( 0.000000000000000, 0.000000000000000, 1.00000000000000 ) );
#411 = DIRECTION( '', ( 1.00000000000000, 0.000000000000000, 0.000000000000000 ) );
#412 = CARTESIAN_POINT( '', ( 7.35646653897199E-032, 1.20144183737250E-015, 12.5997830244323 ) );
#413 = DIRECTION( '', ( 0.000000000000000, 0.000000000000000, 1.00000000000000 ) );
#414 = DIRECTION( '', ( 1.00000000000000, 0.000000000000000, 0.000000000000000 ) );
#415 = CARTESIAN_POINT( '', ( 7.35646653897199E-032, 1.20144183737250E-015, 5.79574701544571 ) );
#416 = DIRECTION( '', ( 0.000000000000000, 0.000000000000000, 1.00000000000000 ) );
#417 = DIRECTION( '', ( 1.00000000000000, 0.000000000000000, 0.000000000000000 ) );
#418 = CARTESIAN_POINT( '', ( 7.35646653897199E-032, 1.20144183737250E-015, 0.204252984547043 ) );
#419 = DIRECTION( '', ( 0.000000000000000, 0.000000000000000, 1.00000000000000 ) );
#420 = DIRECTION( '', ( 1.00000000000000, 0.000000000000000, 0.000000000000000 ) );
#421 = CARTESIAN_POINT( '', ( 7.35646653897199E-032, 1.20144183737250E-015, 12.5997830244323 ) );
#422 = DIRECTION( '', ( 0.000000000000000, 0.000000000000000, 1.00000000000000 ) );
#423 = DIRECTION( '', ( 1.00000000000000, 0.000000000000000, 0.000000000000000 ) );
#424 = CARTESIAN_POINT( '', ( 7.35646653897199E-032, 1.20144183737250E-015, -0.000216975567745442 ) );
#425 = DIRECTION( '', ( 0.000000000000000, 0.000000000000000, 1.00000000000000 ) );
#426 = DIRECTION( '', ( 1.00000000000000, 0.000000000000000, 0.000000000000000 ) );
#427 = CARTESIAN_POINT( '', ( 7.35646653897199E-032, 1.20144183737250E-015, 6.19978302443226 ) );
#428 = DIRECTION( '', ( 0.000000000000000, 0.000000000000000, 1.00000000000000 ) );
#429 = DIRECTION( '', ( 1.00000000000000, 0.000000000000000, 0.000000000000000 ) );
ENDSEC;
END-ISO-10303-21;
