ISO-10303-21;
HEADER;
FILE_DESCRIPTION( ( 'Unknown' ), '1' );
FILE_NAME( '//SBS2003/HD_Usb/Disegni/10_GAMM_CD/2- Gamm_STEP/02 - VOLANTINI DI BLOCCAGGIO/02_26.2-ZB/6332010_ZB22_M06.stp', 'Unknown', ( 'Unknown' ), ( 'Unknown' ), 'PSStep 11.0', 'Unknown', '  ' );
FILE_SCHEMA( ( 'AUTOMOTIVE_DESIGN { 1 0 10303 214 1 1 1 1 }' ) );
ENDSEC;
DATA;
#1 = MECHANICAL_DESIGN_GEOMETRIC_PRESENTATION_REPRESENTATION( ' ', ( #10, #11, #12, #13, #14, #15, #16, #17, #18, #19, #20, #21, #22, #23, #24 ), #6 );
#2 = PRODUCT_DEFINITION_CONTEXT( '', #25, 'design' );
#3 = APPLICATION_PROTOCOL_DEFINITION( 'INTERNATIONAL STANDARD', 'automotive_design', 2001, #25 );
#4 = PRODUCT_CATEGORY_RELATIONSHIP( 'NONE', 'NONE', #26, #27 );
#5 = SHAPE_DEFINITION_REPRESENTATION( #28, #29 );
#6 =  ( GEOMETRIC_REPRESENTATION_CONTEXT( 3 )GLOBAL_UNCERTAINTY_ASSIGNED_CONTEXT( ( #32 ) )GLOBAL_UNIT_ASSIGNED_CONTEXT( ( #34, #35, #36 ) )REPRESENTATION_CONTEXT( 'NONE', 'WORKSPACE' ) );
#10 = STYLED_ITEM( '', ( #38 ), #39 );
#11 = STYLED_ITEM( '', ( #40 ), #41 );
#12 = STYLED_ITEM( '', ( #42 ), #43 );
#13 = STYLED_ITEM( '', ( #44 ), #45 );
#14 = STYLED_ITEM( '', ( #46 ), #47 );
#15 = STYLED_ITEM( '', ( #48 ), #49 );
#16 = STYLED_ITEM( '', ( #50 ), #51 );
#17 = STYLED_ITEM( '', ( #52 ), #53 );
#18 = STYLED_ITEM( '', ( #54 ), #55 );
#19 = STYLED_ITEM( '', ( #56 ), #57 );
#20 = STYLED_ITEM( '', ( #58 ), #59 );
#21 = STYLED_ITEM( '', ( #60 ), #61 );
#22 = STYLED_ITEM( '', ( #62 ), #63 );
#23 = STYLED_ITEM( '', ( #64 ), #65 );
#24 = STYLED_ITEM( '', ( #66 ), #67 );
#25 = APPLICATION_CONTEXT( 'core data for automotive mechanical design processes' );
#26 = PRODUCT_CATEGORY( 'part', 'NONE' );
#27 = PRODUCT_RELATED_PRODUCT_CATEGORY( 'detail', ' ', ( #68 ) );
#28 = PRODUCT_DEFINITION_SHAPE( 'NONE', 'NONE', #69 );
#29 = ADVANCED_BREP_SHAPE_REPRESENTATION( '1801155', ( #70, #71 ), #6 );
#32 = UNCERTAINTY_MEASURE_WITH_UNIT( LENGTH_MEASURE( 0.00100000000000000 ), #34, '', '' );
#34 =  ( CONVERSION_BASED_UNIT( 'MILLIMETRE', #74 )LENGTH_UNIT(  )NAMED_UNIT( #77 ) );
#35 =  ( NAMED_UNIT( #79 )PLANE_ANGLE_UNIT(  )SI_UNIT( $, .RADIAN. ) );
#36 =  ( NAMED_UNIT( #79 )SI_UNIT( $, .STERADIAN. )SOLID_ANGLE_UNIT(  ) );
#38 = PRESENTATION_STYLE_ASSIGNMENT( ( #85 ) );
#39 = ADVANCED_FACE( '', ( #86, #87 ), #88, .T. );
#40 = PRESENTATION_STYLE_ASSIGNMENT( ( #89 ) );
#41 = ADVANCED_FACE( '', ( #90, #91 ), #92, .F. );
#42 = PRESENTATION_STYLE_ASSIGNMENT( ( #93 ) );
#43 = ADVANCED_FACE( '', ( #94, #95 ), #96, .T. );
#44 = PRESENTATION_STYLE_ASSIGNMENT( ( #97 ) );
#45 = ADVANCED_FACE( '', ( #98, #99 ), #100, .T. );
#46 = PRESENTATION_STYLE_ASSIGNMENT( ( #101 ) );
#47 = ADVANCED_FACE( '', ( #102, #103 ), #104, .F. );
#48 = PRESENTATION_STYLE_ASSIGNMENT( ( #105 ) );
#49 = ADVANCED_FACE( '', ( #106, #107 ), #108, .F. );
#50 = PRESENTATION_STYLE_ASSIGNMENT( ( #109 ) );
#51 = ADVANCED_FACE( '', ( #110, #111 ), #112, .F. );
#52 = PRESENTATION_STYLE_ASSIGNMENT( ( #113 ) );
#53 = ADVANCED_FACE( '', ( #114 ), #115, .T. );
#54 = PRESENTATION_STYLE_ASSIGNMENT( ( #116 ) );
#55 = ADVANCED_FACE( '', ( #117, #118 ), #119, .T. );
#56 = PRESENTATION_STYLE_ASSIGNMENT( ( #120 ) );
#57 = ADVANCED_FACE( '', ( #121 ), #122, .F. );
#58 = PRESENTATION_STYLE_ASSIGNMENT( ( #123 ) );
#59 = ADVANCED_FACE( '', ( #124, #125 ), #126, .F. );
#60 = PRESENTATION_STYLE_ASSIGNMENT( ( #127 ) );
#61 = ADVANCED_FACE( '', ( #128, #129 ), #130, .F. );
#62 = PRESENTATION_STYLE_ASSIGNMENT( ( #131 ) );
#63 = ADVANCED_FACE( '', ( #132, #133 ), #134, .F. );
#64 = PRESENTATION_STYLE_ASSIGNMENT( ( #135 ) );
#65 = ADVANCED_FACE( '', ( #136, #137 ), #138, .T. );
#66 = PRESENTATION_STYLE_ASSIGNMENT( ( #139 ) );
#67 = ADVANCED_FACE( '', ( #140, #141 ), #142, .T. );
#68 = PRODUCT( '1801155', '1801155', 'PART-1801155-DESC', ( #143 ) );
#69 = PRODUCT_DEFINITION( 'NONE', 'NONE', #144, #2 );
#70 = MANIFOLD_SOLID_BREP( '1801155', #145 );
#71 = AXIS2_PLACEMENT_3D( '', #146, #147, #148 );
#74 = LENGTH_MEASURE_WITH_UNIT( LENGTH_MEASURE( 1.00000000000000 ), #149 );
#77 = DIMENSIONAL_EXPONENTS( 1.00000000000000, 0.000000000000000, 0.000000000000000, 0.000000000000000, 0.000000000000000, 0.000000000000000, 0.000000000000000 );
#79 = DIMENSIONAL_EXPONENTS( 0.000000000000000, 0.000000000000000, 0.000000000000000, 0.000000000000000, 0.000000000000000, 0.000000000000000, 0.000000000000000 );
#85 = SURFACE_STYLE_USAGE( .BOTH., #150 );
#86 = FACE_OUTER_BOUND( '', #151, .T. );
#87 = FACE_OUTER_BOUND( '', #152, .T. );
#88 = TOROIDAL_SURFACE( '', #153, 7.30004995759797, 0.200000000000000 );
#89 = SURFACE_STYLE_USAGE( .BOTH., #154 );
#90 = FACE_OUTER_BOUND( '', #155, .T. );
#91 = FACE_OUTER_BOUND( '', #156, .T. );
#92 = CYLINDRICAL_SURFACE( '', #157, 2.45850000000000 );
#93 = SURFACE_STYLE_USAGE( .BOTH., #158 );
#94 = FACE_OUTER_BOUND( '', #159, .T. );
#95 = FACE_OUTER_BOUND( '', #160, .T. );
#96 = TOROIDAL_SURFACE( '', #161, 10.8000000000000, 0.200000000000000 );
#97 = SURFACE_STYLE_USAGE( .BOTH., #162 );
#98 = FACE_BOUND( '', #163, .T. );
#99 = FACE_OUTER_BOUND( '', #164, .T. );
#100 = CONICAL_SURFACE( '', #165, 7.50000000000000, 0.0223516616638670 );
#101 = SURFACE_STYLE_USAGE( .BOTH., #166 );
#102 = FACE_OUTER_BOUND( '', #167, .T. );
#103 = FACE_BOUND( '', #168, .T. );
#104 = PLANE( '', #169 );
#105 = SURFACE_STYLE_USAGE( .BOTH., #170 );
#106 = FACE_OUTER_BOUND( '', #171, .T. );
#107 = FACE_OUTER_BOUND( '', #172, .T. );
#108 = TOROIDAL_SURFACE( '', #173, 7.57452568399531, 0.199575535567170 );
#109 = SURFACE_STYLE_USAGE( .BOTH., #174 );
#110 = FACE_BOUND( '', #175, .T. );
#111 = FACE_OUTER_BOUND( '', #176, .T. );
#112 = PLANE( '', #177 );
#113 = SURFACE_STYLE_USAGE( .BOTH., #178 );
#114 = FACE_OUTER_BOUND( '', #179, .T. );
#115 = SPHERICAL_SURFACE( '', #180, 25.0000000000000 );
#116 = SURFACE_STYLE_USAGE( .BOTH., #181 );
#117 = FACE_BOUND( '', #182, .T. );
#118 = FACE_OUTER_BOUND( '', #183, .T. );
#119 = CONICAL_SURFACE( '', #184, 11.0000000000000, 0.167069314570506 );
#120 = SURFACE_STYLE_USAGE( .BOTH., #185 );
#121 = FACE_OUTER_BOUND( '', #186, .T. );
#122 = SPHERICAL_SURFACE( '', #187, 6.00000000000000 );
#123 = SURFACE_STYLE_USAGE( .BOTH., #188 );
#124 = FACE_BOUND( '', #189, .T. );
#125 = FACE_OUTER_BOUND( '', #190, .T. );
#126 = CONICAL_SURFACE( '', #191, 2.95850000000000, 0.785398163397448 );
#127 = SURFACE_STYLE_USAGE( .BOTH., #192 );
#128 = FACE_BOUND( '', #193, .T. );
#129 = FACE_OUTER_BOUND( '', #194, .T. );
#130 = CONICAL_SURFACE( '', #195, 2.95850000000000, 0.785398163397448 );
#131 = SURFACE_STYLE_USAGE( .BOTH., #196 );
#132 = FACE_BOUND( '', #197, .T. );
#133 = FACE_OUTER_BOUND( '', #198, .T. );
#134 = PLANE( '', #199 );
#135 = SURFACE_STYLE_USAGE( .BOTH., #200 );
#136 = FACE_OUTER_BOUND( '', #201, .T. );
#137 = FACE_OUTER_BOUND( '', #202, .T. );
#138 = TOROIDAL_SURFACE( '', #203, 9.85278472922095, 0.200000000000000 );
#139 = SURFACE_STYLE_USAGE( .BOTH., #204 );
#140 = FACE_OUTER_BOUND( '', #205, .T. );
#141 = FACE_OUTER_BOUND( '', #206, .T. );
#142 = CYLINDRICAL_SURFACE( '', #207, 11.0000000000000 );
#143 = PRODUCT_CONTEXT( '', #25, 'mechanical' );
#144 = PRODUCT_DEFINITION_FORMATION_WITH_SPECIFIED_SOURCE( ' ', 'NONE', #68, .NOT_KNOWN. );
#145 = CLOSED_SHELL( '', ( #39, #59, #53, #63, #65, #55, #67, #43, #47, #49, #45, #51, #41, #61, #57 ) );
#146 = CARTESIAN_POINT( '', ( 0.000000000000000, 0.000000000000000, 0.000000000000000 ) );
#147 = DIRECTION( '', ( 0.000000000000000, 0.000000000000000, 1.00000000000000 ) );
#148 = DIRECTION( '', ( 1.00000000000000, 0.000000000000000, 0.000000000000000 ) );
#149 =  ( LENGTH_UNIT(  )NAMED_UNIT( #77 )SI_UNIT( .MILLI., .METRE. ) );
#150 = SURFACE_SIDE_STYLE( '', ( #209 ) );
#151 = EDGE_LOOP( '', ( #210 ) );
#152 = EDGE_LOOP( '', ( #211 ) );
#153 = AXIS2_PLACEMENT_3D( '', #212, #213, #214 );
#154 = SURFACE_SIDE_STYLE( '', ( #215 ) );
#155 = EDGE_LOOP( '', ( #216 ) );
#156 = EDGE_LOOP( '', ( #217 ) );
#157 = AXIS2_PLACEMENT_3D( '', #218, #219, #220 );
#158 = SURFACE_SIDE_STYLE( '', ( #221 ) );
#159 = EDGE_LOOP( '', ( #222 ) );
#160 = EDGE_LOOP( '', ( #223 ) );
#161 = AXIS2_PLACEMENT_3D( '', #224, #225, #226 );
#162 = SURFACE_SIDE_STYLE( '', ( #227 ) );
#163 = EDGE_LOOP( '', ( #228 ) );
#164 = EDGE_LOOP( '', ( #229 ) );
#165 = AXIS2_PLACEMENT_3D( '', #230, #231, #232 );
#166 = SURFACE_SIDE_STYLE( '', ( #233 ) );
#167 = EDGE_LOOP( '', ( #234 ) );
#168 = EDGE_LOOP( '', ( #235 ) );
#169 = AXIS2_PLACEMENT_3D( '', #236, #237, #238 );
#170 = SURFACE_SIDE_STYLE( '', ( #239 ) );
#171 = EDGE_LOOP( '', ( #240 ) );
#172 = EDGE_LOOP( '', ( #241 ) );
#173 = AXIS2_PLACEMENT_3D( '', #242, #243, #244 );
#174 = SURFACE_SIDE_STYLE( '', ( #245 ) );
#175 = EDGE_LOOP( '', ( #246 ) );
#176 = EDGE_LOOP( '', ( #247 ) );
#177 = AXIS2_PLACEMENT_3D( '', #248, #249, #250 );
#178 = SURFACE_SIDE_STYLE( '', ( #251 ) );
#179 = EDGE_LOOP( '', ( #252 ) );
#180 = AXIS2_PLACEMENT_3D( '', #253, #254, #255 );
#181 = SURFACE_SIDE_STYLE( '', ( #256 ) );
#182 = EDGE_LOOP( '', ( #257 ) );
#183 = EDGE_LOOP( '', ( #258 ) );
#184 = AXIS2_PLACEMENT_3D( '', #259, #260, #261 );
#185 = SURFACE_SIDE_STYLE( '', ( #262 ) );
#186 = EDGE_LOOP( '', ( #263 ) );
#187 = AXIS2_PLACEMENT_3D( '', #264, #265, #266 );
#188 = SURFACE_SIDE_STYLE( '', ( #267 ) );
#189 = EDGE_LOOP( '', ( #268 ) );
#190 = EDGE_LOOP( '', ( #269 ) );
#191 = AXIS2_PLACEMENT_3D( '', #270, #271, #272 );
#192 = SURFACE_SIDE_STYLE( '', ( #273 ) );
#193 = EDGE_LOOP( '', ( #274 ) );
#194 = EDGE_LOOP( '', ( #275 ) );
#195 = AXIS2_PLACEMENT_3D( '', #276, #277, #278 );
#196 = SURFACE_SIDE_STYLE( '', ( #279 ) );
#197 = EDGE_LOOP( '', ( #280 ) );
#198 = EDGE_LOOP( '', ( #281 ) );
#199 = AXIS2_PLACEMENT_3D( '', #282, #283, #284 );
#200 = SURFACE_SIDE_STYLE( '', ( #285 ) );
#201 = EDGE_LOOP( '', ( #286 ) );
#202 = EDGE_LOOP( '', ( #287 ) );
#203 = AXIS2_PLACEMENT_3D( '', #288, #289, #290 );
#204 = SURFACE_SIDE_STYLE( '', ( #291 ) );
#205 = EDGE_LOOP( '', ( #292 ) );
#206 = EDGE_LOOP( '', ( #293 ) );
#207 = AXIS2_PLACEMENT_3D( '', #294, #295, #296 );
#209 = SURFACE_STYLE_FILL_AREA( #297 );
#210 = ORIENTED_EDGE( '', *, *, #298, .F. );
#211 = ORIENTED_EDGE( '', *, *, #299, .T. );
#212 = CARTESIAN_POINT( '', ( 9.62964972193618E-032, 8.67361737988404E-016, 0.199783024432255 ) );
#213 = DIRECTION( '', ( 0.000000000000000, 0.000000000000000, 1.00000000000000 ) );
#214 = DIRECTION( '', ( 1.00000000000000, 0.000000000000000, 0.000000000000000 ) );
#215 = SURFACE_STYLE_FILL_AREA( #300 );
#216 = ORIENTED_EDGE( '', *, *, #301, .T. );
#217 = ORIENTED_EDGE( '', *, *, #302, .T. );
#218 = CARTESIAN_POINT( '', ( -3.01944106339279E-016, -3.09057199614205E-017, 11.0997830244322 ) );
#219 = DIRECTION( '', ( -2.71696244531402E-017, -1.11022302462516E-016, 1.00000000000000 ) );
#220 = DIRECTION( '', ( -1.00000000000000, -3.14654155820964E-033, -2.71696244531402E-017 ) );
#221 = SURFACE_STYLE_FILL_AREA( #303 );
#222 = ORIENTED_EDGE( '', *, *, #304, .F. );
#223 = ORIENTED_EDGE( '', *, *, #305, .T. );
#224 = CARTESIAN_POINT( '', ( 9.62964972193618E-032, 1.73472347597680E-015, 6.19978302443226 ) );
#225 = DIRECTION( '', ( 0.000000000000000, 0.000000000000000, 1.00000000000000 ) );
#226 = DIRECTION( '', ( 1.00000000000000, 0.000000000000000, 0.000000000000000 ) );
#227 = SURFACE_STYLE_FILL_AREA( #306 );
#228 = ORIENTED_EDGE( '', *, *, #307, .F. );
#229 = ORIENTED_EDGE( '', *, *, #298, .T. );
#230 = CARTESIAN_POINT( '', ( 7.35646653897199E-032, 1.20144183737250E-015, 0.204252984547043 ) );
#231 = DIRECTION( '', ( -0.000000000000000, 0.000000000000000, -1.00000000000000 ) );
#232 = DIRECTION( '', ( -1.00000000000000, 0.000000000000000, 0.000000000000000 ) );
#233 = SURFACE_STYLE_FILL_AREA( #308 );
#234 = ORIENTED_EDGE( '', *, *, #305, .F. );
#235 = ORIENTED_EDGE( '', *, *, #309, .T. );
#236 = CARTESIAN_POINT( '', ( 6.61287431064084E-016, 10.8000000000000, 5.99978302443226 ) );
#237 = DIRECTION( '', ( 0.000000000000000, 0.000000000000000, 1.00000000000000 ) );
#238 = DIRECTION( '', ( 1.00000000000000, 0.000000000000000, 0.000000000000000 ) );
#239 = SURFACE_STYLE_FILL_AREA( #310 );
#240 = ORIENTED_EDGE( '', *, *, #309, .F. );
#241 = ORIENTED_EDGE( '', *, *, #307, .T. );
#242 = CARTESIAN_POINT( '', ( 9.62964972193618E-032, 8.67361737988404E-016, 5.80020748886509 ) );
#243 = DIRECTION( '', ( 0.000000000000000, 0.000000000000000, 1.00000000000000 ) );
#244 = DIRECTION( '', ( 1.00000000000000, 0.000000000000000, 0.000000000000000 ) );
#245 = SURFACE_STYLE_FILL_AREA( #311 );
#246 = ORIENTED_EDGE( '', *, *, #312, .T. );
#247 = ORIENTED_EDGE( '', *, *, #299, .F. );
#248 = CARTESIAN_POINT( '', ( 5.32590638055402E-015, 1.20144183737250E-015, -0.000216975567744912 ) );
#249 = DIRECTION( '', ( -2.71696244531402E-017, -1.11022302462516E-016, 1.00000000000000 ) );
#250 = DIRECTION( '', ( -1.00000000000000, -3.14654155820964E-033, -2.71696244531402E-017 ) );
#251 = SURFACE_STYLE_FILL_AREA( #313 );
#252 = ORIENTED_EDGE( '', *, *, #314, .T. );
#253 = CARTESIAN_POINT( '', ( 1.34971091912675E-031, 2.20431800784617E-015, -11.0002169755677 ) );
#254 = DIRECTION( '', ( 0.000000000000000, 0.000000000000000, 1.00000000000000 ) );
#255 = DIRECTION( '', ( 6.12303176911189E-017, 1.00000000000000, 0.000000000000000 ) );
#256 = SURFACE_STYLE_FILL_AREA( #315 );
#257 = ORIENTED_EDGE( '', *, *, #316, .F. );
#258 = ORIENTED_EDGE( '', *, *, #317, .T. );
#259 = CARTESIAN_POINT( '', ( 7.35646653897199E-032, 1.20144183737250E-015, 6.79978302443226 ) );
#260 = DIRECTION( '', ( -0.000000000000000, 0.000000000000000, -1.00000000000000 ) );
#261 = DIRECTION( '', ( -1.00000000000000, 0.000000000000000, 0.000000000000000 ) );
#262 = SURFACE_STYLE_FILL_AREA( #318 );
#263 = ORIENTED_EDGE( '', *, *, #319, .F. );
#264 = CARTESIAN_POINT( '', ( -7.96632521552264E-032, -1.30104260698260E-015, 5.49978302443225 ) );
#265 = DIRECTION( '', ( 0.000000000000000, 0.000000000000000, 1.00000000000000 ) );
#266 = DIRECTION( '', ( 6.12303176911189E-017, 1.00000000000000, 0.000000000000000 ) );
#267 = SURFACE_STYLE_FILL_AREA( #320 );
#268 = ORIENTED_EDGE( '', *, *, #302, .F. );
#269 = ORIENTED_EDGE( '', *, *, #312, .F. );
#270 = CARTESIAN_POINT( '', ( -3.61274909422711E-019, 1.20144183737250E-015, -0.000216975567745442 ) );
#271 = DIRECTION( '', ( 2.71696244531404E-017, 1.11022302462516E-016, -1.00000000000000 ) );
#272 = DIRECTION( '', ( 1.00000000000000, 3.14654155820964E-033, 2.71696244531404E-017 ) );
#273 = SURFACE_STYLE_FILL_AREA( #321 );
#274 = ORIENTED_EDGE( '', *, *, #301, .F. );
#275 = ORIENTED_EDGE( '', *, *, #319, .T. );
#276 = CARTESIAN_POINT( '', ( -3.01944106339279E-016, -3.09057199614208E-017, 11.0997830244323 ) );
#277 = DIRECTION( '', ( -2.71696244531402E-017, -1.11022302462516E-016, 1.00000000000000 ) );
#278 = DIRECTION( '', ( -1.00000000000000, -3.14654155820964E-033, -2.71696244531402E-017 ) );
#279 = SURFACE_STYLE_FILL_AREA( #322 );
#280 = ORIENTED_EDGE( '', *, *, #314, .F. );
#281 = ORIENTED_EDGE( '', *, *, #323, .T. );
#282 = CARTESIAN_POINT( '', ( 6.03289139112403E-016, 9.85278472922095, 12.5997830244323 ) );
#283 = DIRECTION( '', ( 0.000000000000000, 0.000000000000000, -1.00000000000000 ) );
#284 = DIRECTION( '', ( -1.00000000000000, 0.000000000000000, 0.000000000000000 ) );
#285 = SURFACE_STYLE_FILL_AREA( #324 );
#286 = ORIENTED_EDGE( '', *, *, #323, .F. );
#287 = ORIENTED_EDGE( '', *, *, #316, .T. );
#288 = CARTESIAN_POINT( '', ( 9.62964972193618E-032, 1.73472347597680E-015, 12.3997830244323 ) );
#289 = DIRECTION( '', ( 0.000000000000000, 0.000000000000000, 1.00000000000000 ) );
#290 = DIRECTION( '', ( 1.00000000000000, 0.000000000000000, 0.000000000000000 ) );
#291 = SURFACE_STYLE_FILL_AREA( #325 );
#292 = ORIENTED_EDGE( '', *, *, #317, .F. );
#293 = ORIENTED_EDGE( '', *, *, #304, .T. );
#294 = CARTESIAN_POINT( '', ( 7.35646653897199E-032, 1.20144183737250E-015, 9.81084112149533 ) );
#295 = DIRECTION( '', ( -0.000000000000000, -0.000000000000000, -1.00000000000000 ) );
#296 = DIRECTION( '', ( 1.00000000000000, 0.000000000000000, 0.000000000000000 ) );
#297 = FILL_AREA_STYLE( '', ( #326 ) );
#298 = EDGE_CURVE( '', #327, #327, #328, .T. );
#299 = EDGE_CURVE( '', #329, #329, #330, .T. );
#300 = FILL_AREA_STYLE( '', ( #331 ) );
#301 = EDGE_CURVE( '', #332, #332, #333, .F. );
#302 = EDGE_CURVE( '', #334, #334, #335, .F. );
#303 = FILL_AREA_STYLE( '', ( #336 ) );
#304 = EDGE_CURVE( '', #337, #337, #338, .T. );
#305 = EDGE_CURVE( '', #339, #339, #340, .T. );
#306 = FILL_AREA_STYLE( '', ( #341 ) );
#307 = EDGE_CURVE( '', #342, #342, #343, .T. );
#308 = FILL_AREA_STYLE( '', ( #344 ) );
#309 = EDGE_CURVE( '', #345, #345, #346, .T. );
#310 = FILL_AREA_STYLE( '', ( #347 ) );
#311 = FILL_AREA_STYLE( '', ( #348 ) );
#312 = EDGE_CURVE( '', #349, #349, #350, .T. );
#313 = FILL_AREA_STYLE( '', ( #351 ) );
#314 = EDGE_CURVE( '', #352, #352, #353, .T. );
#315 = FILL_AREA_STYLE( '', ( #354 ) );
#316 = EDGE_CURVE( '', #355, #355, #356, .T. );
#317 = EDGE_CURVE( '', #357, #357, #358, .T. );
#318 = FILL_AREA_STYLE( '', ( #359 ) );
#319 = EDGE_CURVE( '', #360, #360, #361, .F. );
#320 = FILL_AREA_STYLE( '', ( #362 ) );
#321 = FILL_AREA_STYLE( '', ( #363 ) );
#322 = FILL_AREA_STYLE( '', ( #364 ) );
#323 = EDGE_CURVE( '', #365, #365, #366, .T. );
#324 = FILL_AREA_STYLE( '', ( #367 ) );
#325 = FILL_AREA_STYLE( '', ( #368 ) );
#326 = FILL_AREA_STYLE_COLOUR( '', #369 );
#327 = VERTEX_POINT( '', #370 );
#328 = CIRCLE( '', #371, 7.50000000000000 );
#329 = VERTEX_POINT( '', #372 );
#330 = CIRCLE( '', #373, 7.30004995759797 );
#331 = FILL_AREA_STYLE_COLOUR( '', #374 );
#332 = VERTEX_POINT( '', #375 );
#333 = CIRCLE( '', #376, 2.45850000000000 );
#334 = VERTEX_POINT( '', #377 );
#335 = CIRCLE( '', #378, 2.45850000000000 );
#336 = FILL_AREA_STYLE_COLOUR( '', #379 );
#337 = VERTEX_POINT( '', #380 );
#338 = CIRCLE( '', #381, 11.0000000000000 );
#339 = VERTEX_POINT( '', #382 );
#340 = CIRCLE( '', #383, 10.8000000000000 );
#341 = FILL_AREA_STYLE_COLOUR( '', #384 );
#342 = VERTEX_POINT( '', #385 );
#343 = CIRCLE( '', #386, 7.37500000000000 );
#344 = FILL_AREA_STYLE_COLOUR( '', #387 );
#345 = VERTEX_POINT( '', #388 );
#346 = CIRCLE( '', #389, 7.57452568399531 );
#347 = FILL_AREA_STYLE_COLOUR( '', #390 );
#348 = FILL_AREA_STYLE_COLOUR( '', #391 );
#349 = VERTEX_POINT( '', #392 );
#350 = CIRCLE( '', #393, 2.95850000000000 );
#351 = FILL_AREA_STYLE_COLOUR( '', #394 );
#352 = VERTEX_POINT( '', #395 );
#353 = CIRCLE( '', #396, 8.24863625092051 );
#354 = FILL_AREA_STYLE_COLOUR( '', #397 );
#355 = VERTEX_POINT( '', #398 );
#356 = CIRCLE( '', #399, 10.0500000000000 );
#357 = VERTEX_POINT( '', #400 );
#358 = CIRCLE( '', #401, 11.0000000000000 );
#359 = FILL_AREA_STYLE_COLOUR( '', #402 );
#360 = VERTEX_POINT( '', #403 );
#361 = CIRCLE( '', #404, 2.71107581934042 );
#362 = FILL_AREA_STYLE_COLOUR( '', #405 );
#363 = FILL_AREA_STYLE_COLOUR( '', #406 );
#364 = FILL_AREA_STYLE_COLOUR( '', #407 );
#365 = VERTEX_POINT( '', #408 );
#366 = CIRCLE( '', #409, 9.85278472922095 );
#367 = FILL_AREA_STYLE_COLOUR( '', #410 );
#368 = FILL_AREA_STYLE_COLOUR( '', #411 );
#369 = COLOUR_RGB( '', 0.200000002980232, 0.200000002980232, 0.200000002980232 );
#370 = CARTESIAN_POINT( '', ( 7.50000000000000, 1.20144183737250E-015, 0.204252984547043 ) );
#371 = AXIS2_PLACEMENT_3D( '', #412, #413, #414 );
#372 = CARTESIAN_POINT( '', ( 7.30004995759797, 1.20144183737250E-015, -0.000216975567745442 ) );
#373 = AXIS2_PLACEMENT_3D( '', #415, #416, #417 );
#374 = COLOUR_RGB( '', 0.752941191196442, 0.752941191196442, 0.752941191196442 );
#375 = CARTESIAN_POINT( '', ( 2.45850000000000, 2.46054312698372E-017, 10.5997830244323 ) );
#376 = AXIS2_PLACEMENT_3D( '', #418, #419, #420 );
#377 = CARTESIAN_POINT( '', ( -2.45850000000000, 1.14593068614124E-015, 0.499783024432255 ) );
#378 = AXIS2_PLACEMENT_3D( '', #421, #422, #423 );
#379 = COLOUR_RGB( '', 0.200000002980232, 0.200000002980232, 0.200000002980232 );
#380 = CARTESIAN_POINT( '', ( 11.0000000000000, 1.20144183737250E-015, 6.19978302443226 ) );
#381 = AXIS2_PLACEMENT_3D( '', #424, #425, #426 );
#382 = CARTESIAN_POINT( '', ( 10.8000000000000, 1.20144183737250E-015, 5.99978302443226 ) );
#383 = AXIS2_PLACEMENT_3D( '', #427, #428, #429 );
#384 = COLOUR_RGB( '', 0.200000002980232, 0.200000002980232, 0.200000002980232 );
#385 = CARTESIAN_POINT( '', ( 7.37500000000000, 1.20144183737250E-015, 5.79574701544571 ) );
#386 = AXIS2_PLACEMENT_3D( '', #430, #431, #432 );
#387 = COLOUR_RGB( '', 0.200000002980232, 0.200000002980232, 0.200000002980232 );
#388 = CARTESIAN_POINT( '', ( 7.57452568399531, 1.20144183737250E-015, 5.99978302443226 ) );
#389 = AXIS2_PLACEMENT_3D( '', #433, #434, #435 );
#390 = COLOUR_RGB( '', 0.200000002980232, 0.200000002980232, 0.200000002980232 );
#391 = COLOUR_RGB( '', 0.752941191196442, 0.752941191196442, 0.752941191196442 );
#392 = CARTESIAN_POINT( '', ( -2.95850000000000, 1.20144183737250E-015, -0.000216975567744663 ) );
#393 = AXIS2_PLACEMENT_3D( '', #436, #437, #438 );
#394 = COLOUR_RGB( '', 0.200000002980232, 0.200000002980232, 0.200000002980232 );
#395 = CARTESIAN_POINT( '', ( 8.24863625092051, 1.20144183737250E-015, 12.5997830244323 ) );
#396 = AXIS2_PLACEMENT_3D( '', #439, #440, #441 );
#397 = COLOUR_RGB( '', 0.200000002980232, 0.200000002980232, 0.200000002980232 );
#398 = CARTESIAN_POINT( '', ( 10.0500000000000, 1.20144183737250E-015, 12.4330416619802 ) );
#399 = AXIS2_PLACEMENT_3D( '', #442, #443, #444 );
#400 = CARTESIAN_POINT( '', ( 11.0000000000000, 1.20144183737250E-015, 6.79978302443226 ) );
#401 = AXIS2_PLACEMENT_3D( '', #445, #446, #447 );
#402 = COLOUR_RGB( '', 0.200000002980232, 0.200000002980232, 0.200000002980232 );
#403 = CARTESIAN_POINT( '', ( -1.45427474868438E-016, 2.71107581934041, 10.8523588437727 ) );
#404 = AXIS2_PLACEMENT_3D( '', #448, #449, #450 );
#405 = COLOUR_RGB( '', 0.666666686534882, 0.400000005960464, 0.133333340287209 );
#406 = COLOUR_RGB( '', 0.666666686534882, 0.400000005960464, 0.133333340287209 );
#407 = COLOUR_RGB( '', 0.200000002980232, 0.200000002980232, 0.200000002980232 );
#408 = CARTESIAN_POINT( '', ( 9.85278472922095, 1.20144183737250E-015, 12.5997830244323 ) );
#409 = AXIS2_PLACEMENT_3D( '', #451, #452, #453 );
#410 = COLOUR_RGB( '', 0.200000002980232, 0.200000002980232, 0.200000002980232 );
#411 = COLOUR_RGB( '', 0.200000002980232, 0.200000002980232, 0.200000002980232 );
#412 = CARTESIAN_POINT( '', ( 7.35646653897199E-032, 1.20144183737250E-015, 0.204252984547043 ) );
#413 = DIRECTION( '', ( 0.000000000000000, 0.000000000000000, 1.00000000000000 ) );
#414 = DIRECTION( '', ( 1.00000000000000, 0.000000000000000, 0.000000000000000 ) );
#415 = CARTESIAN_POINT( '', ( 7.35646653897199E-032, 1.20144183737250E-015, -0.000216975567745442 ) );
#416 = DIRECTION( '', ( 0.000000000000000, 0.000000000000000, 1.00000000000000 ) );
#417 = DIRECTION( '', ( 1.00000000000000, 0.000000000000000, 0.000000000000000 ) );
#418 = CARTESIAN_POINT( '', ( -2.88359294112708E-016, 2.46054312698372E-017, 10.5997830244323 ) );
#419 = DIRECTION( '', ( 2.71696244531402E-017, 1.11022302462516E-016, -1.00000000000000 ) );
#420 = DIRECTION( '', ( 1.00000000000000, 3.14654155820964E-033, 2.71696244531402E-017 ) );
#421 = CARTESIAN_POINT( '', ( -1.39460871359929E-017, 1.14593068614124E-015, 0.499783024432255 ) );
#422 = DIRECTION( '', ( -2.71696244531404E-017, -1.11022302462516E-016, 1.00000000000000 ) );
#423 = DIRECTION( '', ( -1.00000000000000, -3.14654155820964E-033, -2.71696244531404E-017 ) );
#424 = CARTESIAN_POINT( '', ( 7.35646653897199E-032, 1.20144183737250E-015, 6.19978302443226 ) );
#425 = DIRECTION( '', ( 0.000000000000000, 0.000000000000000, 1.00000000000000 ) );
#426 = DIRECTION( '', ( 1.00000000000000, 0.000000000000000, 0.000000000000000 ) );
#427 = CARTESIAN_POINT( '', ( 7.35646653897199E-032, 1.20144183737250E-015, 5.99978302443226 ) );
#428 = DIRECTION( '', ( 0.000000000000000, 0.000000000000000, 1.00000000000000 ) );
#429 = DIRECTION( '', ( 1.00000000000000, 0.000000000000000, 0.000000000000000 ) );
#430 = CARTESIAN_POINT( '', ( 7.35646653897199E-032, 1.20144183737250E-015, 5.79574701544571 ) );
#431 = DIRECTION( '', ( 0.000000000000000, 0.000000000000000, 1.00000000000000 ) );
#432 = DIRECTION( '', ( 1.00000000000000, 0.000000000000000, 0.000000000000000 ) );
#433 = CARTESIAN_POINT( '', ( 7.35646653897199E-032, 1.20144183737250E-015, 5.99978302443226 ) );
#434 = DIRECTION( '', ( 0.000000000000000, 0.000000000000000, 1.00000000000000 ) );
#435 = DIRECTION( '', ( 1.00000000000000, 0.000000000000000, 0.000000000000000 ) );
#436 = CARTESIAN_POINT( '', ( -3.61274909422808E-019, 1.20144183737250E-015, -0.000216975567744912 ) );
#437 = DIRECTION( '', ( -2.71696244531402E-017, -1.11022302462516E-016, 1.00000000000000 ) );
#438 = DIRECTION( '', ( -1.00000000000000, -3.14654155820964E-033, -2.71696244531402E-017 ) );
#439 = CARTESIAN_POINT( '', ( 7.35646653897199E-032, 1.20144183737250E-015, 12.5997830244323 ) );
#440 = DIRECTION( '', ( 0.000000000000000, 0.000000000000000, 1.00000000000000 ) );
#441 = DIRECTION( '', ( 1.00000000000000, 0.000000000000000, 0.000000000000000 ) );
#442 = CARTESIAN_POINT( '', ( 7.35646653897199E-032, 1.20144183737250E-015, 12.4330416619802 ) );
#443 = DIRECTION( '', ( 0.000000000000000, 0.000000000000000, 1.00000000000000 ) );
#444 = DIRECTION( '', ( 1.00000000000000, 0.000000000000000, 0.000000000000000 ) );
#445 = CARTESIAN_POINT( '', ( 7.35646653897199E-032, 1.20144183737250E-015, 6.79978302443226 ) );
#446 = DIRECTION( '', ( 0.000000000000000, 0.000000000000000, 1.00000000000000 ) );
#447 = DIRECTION( '', ( 1.00000000000000, 0.000000000000000, 0.000000000000000 ) );
#448 = CARTESIAN_POINT( '', ( -1.45427474868438E-016, -1.89529789855096E-015, 10.8523588437727 ) );
#449 = DIRECTION( '', ( 2.71696244531402E-017, 1.11022302462516E-016, -1.00000000000000 ) );
#450 = DIRECTION( '', ( 0.000000000000000, 1.00000000000000, 1.11022302462516E-016 ) );
#451 = CARTESIAN_POINT( '', ( 7.35646653897199E-032, 1.20144183737250E-015, 12.5997830244323 ) );
#452 = DIRECTION( '', ( 0.000000000000000, 0.000000000000000, 1.00000000000000 ) );
#453 = DIRECTION( '', ( 1.00000000000000, 0.000000000000000, 0.000000000000000 ) );
ENDSEC;
END-ISO-10303-21;
