ISO-10303-21;
HEADER;
FILE_DESCRIPTION( ( 'Unknown' ), '1' );
FILE_NAME( 'E:/98-Dis_3D_per_controllo/ZB-FP/6332016_ZB22_FP_M08/6332016_ZB22_FP_M08.stp', 'Unknown', ( 'Unknown' ), ( 'Unknown' ), 'PSStep 11.0', 'Unknown', '  ' );
FILE_SCHEMA( ( 'AUTOMOTIVE_DESIGN { 1 0 10303 214 1 1 1 1 }' ) );
ENDSEC;
DATA;
#1 = MECHANICAL_DESIGN_GEOMETRIC_PRESENTATION_REPRESENTATION( ' ', ( #10, #11, #12, #13, #14, #15, #16, #17, #18, #19, #20, #21, #22, #23, #24, #25, #26 ), #6 );
#2 = PRODUCT_DEFINITION_CONTEXT( '', #27, 'design' );
#3 = APPLICATION_PROTOCOL_DEFINITION( 'INTERNATIONAL STANDARD', 'automotive_design', 2001, #27 );
#4 = PRODUCT_CATEGORY_RELATIONSHIP( 'NONE', 'NONE', #28, #29 );
#5 = SHAPE_DEFINITION_REPRESENTATION( #30, #31 );
#6 =  ( GEOMETRIC_REPRESENTATION_CONTEXT( 3 )GLOBAL_UNCERTAINTY_ASSIGNED_CONTEXT( ( #34 ) )GLOBAL_UNIT_ASSIGNED_CONTEXT( ( #36, #37, #38 ) )REPRESENTATION_CONTEXT( 'NONE', 'WORKSPACE' ) );
#10 = STYLED_ITEM( '', ( #40 ), #41 );
#11 = STYLED_ITEM( '', ( #42 ), #43 );
#12 = STYLED_ITEM( '', ( #44 ), #45 );
#13 = STYLED_ITEM( '', ( #46 ), #47 );
#14 = STYLED_ITEM( '', ( #48 ), #49 );
#15 = STYLED_ITEM( '', ( #50 ), #51 );
#16 = STYLED_ITEM( '', ( #52 ), #53 );
#17 = STYLED_ITEM( '', ( #54 ), #55 );
#18 = STYLED_ITEM( '', ( #56 ), #57 );
#19 = STYLED_ITEM( '', ( #58 ), #59 );
#20 = STYLED_ITEM( '', ( #60 ), #61 );
#21 = STYLED_ITEM( '', ( #62 ), #63 );
#22 = STYLED_ITEM( '', ( #64 ), #65 );
#23 = STYLED_ITEM( '', ( #66 ), #67 );
#24 = STYLED_ITEM( '', ( #68 ), #69 );
#25 = STYLED_ITEM( '', ( #70 ), #71 );
#26 = STYLED_ITEM( '', ( #72 ), #73 );
#27 = APPLICATION_CONTEXT( 'core data for automotive mechanical design processes' );
#28 = PRODUCT_CATEGORY( 'part', 'NONE' );
#29 = PRODUCT_RELATED_PRODUCT_CATEGORY( 'detail', ' ', ( #74 ) );
#30 = PRODUCT_DEFINITION_SHAPE( 'NONE', 'NONE', #75 );
#31 = ADVANCED_BREP_SHAPE_REPRESENTATION( '6332016', ( #76, #77 ), #6 );
#34 = UNCERTAINTY_MEASURE_WITH_UNIT( LENGTH_MEASURE( 0.00100000000000000 ), #36, '', '' );
#36 =  ( CONVERSION_BASED_UNIT( 'MILLIMETRE', #80 )LENGTH_UNIT(  )NAMED_UNIT( #83 ) );
#37 =  ( NAMED_UNIT( #85 )PLANE_ANGLE_UNIT(  )SI_UNIT( $, .RADIAN. ) );
#38 =  ( NAMED_UNIT( #85 )SI_UNIT( $, .STERADIAN. )SOLID_ANGLE_UNIT(  ) );
#40 = PRESENTATION_STYLE_ASSIGNMENT( ( #91 ) );
#41 = ADVANCED_FACE( '', ( #92, #93 ), #94, .T. );
#42 = PRESENTATION_STYLE_ASSIGNMENT( ( #95 ) );
#43 = ADVANCED_FACE( '', ( #96, #97 ), #98, .F. );
#44 = PRESENTATION_STYLE_ASSIGNMENT( ( #99 ) );
#45 = ADVANCED_FACE( '', ( #100, #101 ), #102, .T. );
#46 = PRESENTATION_STYLE_ASSIGNMENT( ( #103 ) );
#47 = ADVANCED_FACE( '', ( #104, #105 ), #106, .F. );
#48 = PRESENTATION_STYLE_ASSIGNMENT( ( #107 ) );
#49 = ADVANCED_FACE( '', ( #108, #109 ), #110, .F. );
#50 = PRESENTATION_STYLE_ASSIGNMENT( ( #111 ) );
#51 = ADVANCED_FACE( '', ( #112, #113 ), #114, .F. );
#52 = PRESENTATION_STYLE_ASSIGNMENT( ( #115 ) );
#53 = ADVANCED_FACE( '', ( #116, #117 ), #118, .T. );
#54 = PRESENTATION_STYLE_ASSIGNMENT( ( #119 ) );
#55 = ADVANCED_FACE( '', ( #120, #121 ), #122, .T. );
#56 = PRESENTATION_STYLE_ASSIGNMENT( ( #123 ) );
#57 = ADVANCED_FACE( '', ( #124, #125 ), #126, .F. );
#58 = PRESENTATION_STYLE_ASSIGNMENT( ( #127 ) );
#59 = ADVANCED_FACE( '', ( #128, #129 ), #130, .T. );
#60 = PRESENTATION_STYLE_ASSIGNMENT( ( #131 ) );
#61 = ADVANCED_FACE( '', ( #132, #133 ), #134, .F. );
#62 = PRESENTATION_STYLE_ASSIGNMENT( ( #135 ) );
#63 = ADVANCED_FACE( '', ( #136, #137 ), #138, .T. );
#64 = PRESENTATION_STYLE_ASSIGNMENT( ( #139 ) );
#65 = ADVANCED_FACE( '', ( #140, #141 ), #142, .T. );
#66 = PRESENTATION_STYLE_ASSIGNMENT( ( #143 ) );
#67 = ADVANCED_FACE( '', ( #144, #145 ), #146, .F. );
#68 = PRESENTATION_STYLE_ASSIGNMENT( ( #147 ) );
#69 = ADVANCED_FACE( '', ( #148, #149 ), #150, .F. );
#70 = PRESENTATION_STYLE_ASSIGNMENT( ( #151 ) );
#71 = ADVANCED_FACE( '', ( #152, #153 ), #154, .F. );
#72 = PRESENTATION_STYLE_ASSIGNMENT( ( #155 ) );
#73 = ADVANCED_FACE( '', ( #156, #157 ), #158, .T. );
#74 = PRODUCT( '6332016', '6332016', 'PART-6332016-DESC', ( #159 ) );
#75 = PRODUCT_DEFINITION( 'NONE', 'NONE', #160, #2 );
#76 = MANIFOLD_SOLID_BREP( '6332016', #161 );
#77 = AXIS2_PLACEMENT_3D( '', #162, #163, #164 );
#80 = LENGTH_MEASURE_WITH_UNIT( LENGTH_MEASURE( 1.00000000000000 ), #165 );
#83 = DIMENSIONAL_EXPONENTS( 1.00000000000000, 0.000000000000000, 0.000000000000000, 0.000000000000000, 0.000000000000000, 0.000000000000000, 0.000000000000000 );
#85 = DIMENSIONAL_EXPONENTS( 0.000000000000000, 0.000000000000000, 0.000000000000000, 0.000000000000000, 0.000000000000000, 0.000000000000000, 0.000000000000000 );
#91 = SURFACE_STYLE_USAGE( .BOTH., #166 );
#92 = FACE_OUTER_BOUND( '', #167, .T. );
#93 = FACE_OUTER_BOUND( '', #168, .T. );
#94 = TOROIDAL_SURFACE( '', #169, 7.30004995759797, 0.200000000000000 );
#95 = SURFACE_STYLE_USAGE( .BOTH., #170 );
#96 = FACE_OUTER_BOUND( '', #171, .T. );
#97 = FACE_BOUND( '', #172, .T. );
#98 = PLANE( '', #173 );
#99 = SURFACE_STYLE_USAGE( .BOTH., #174 );
#100 = FACE_BOUND( '', #175, .T. );
#101 = FACE_OUTER_BOUND( '', #176, .T. );
#102 = CONICAL_SURFACE( '', #177, 11.0000000000000, 0.167069314570506 );
#103 = SURFACE_STYLE_USAGE( .BOTH., #178 );
#104 = FACE_OUTER_BOUND( '', #179, .T. );
#105 = FACE_BOUND( '', #180, .T. );
#106 = PLANE( '', #181 );
#107 = SURFACE_STYLE_USAGE( .BOTH., #182 );
#108 = FACE_OUTER_BOUND( '', #183, .T. );
#109 = FACE_OUTER_BOUND( '', #184, .T. );
#110 = CYLINDRICAL_SURFACE( '', #185, 4.50000000000000 );
#111 = SURFACE_STYLE_USAGE( .BOTH., #186 );
#112 = FACE_OUTER_BOUND( '', #187, .T. );
#113 = FACE_BOUND( '', #188, .T. );
#114 = PLANE( '', #189 );
#115 = SURFACE_STYLE_USAGE( .BOTH., #190 );
#116 = FACE_OUTER_BOUND( '', #191, .T. );
#117 = FACE_OUTER_BOUND( '', #192, .T. );
#118 = TOROIDAL_SURFACE( '', #193, 10.8000000000000, 0.200000000000000 );
#119 = SURFACE_STYLE_USAGE( .BOTH., #194 );
#120 = FACE_OUTER_BOUND( '', #195, .T. );
#121 = FACE_OUTER_BOUND( '', #196, .T. );
#122 = TOROIDAL_SURFACE( '', #197, 9.85278472922095, 0.200000000000000 );
#123 = SURFACE_STYLE_USAGE( .BOTH., #198 );
#124 = FACE_OUTER_BOUND( '', #199, .T. );
#125 = FACE_OUTER_BOUND( '', #200, .T. );
#126 = TOROIDAL_SURFACE( '', #201, 7.57452568398890, 0.199575535560758 );
#127 = SURFACE_STYLE_USAGE( .BOTH., #202 );
#128 = FACE_BOUND( '', #203, .T. );
#129 = FACE_OUTER_BOUND( '', #204, .T. );
#130 = CONICAL_SURFACE( '', #205, 7.50000000000000, 0.0223516616638408 );
#131 = SURFACE_STYLE_USAGE( .BOTH., #206 );
#132 = FACE_BOUND( '', #207, .T. );
#133 = FACE_OUTER_BOUND( '', #208, .T. );
#134 = PLANE( '', #209 );
#135 = SURFACE_STYLE_USAGE( .BOTH., #210 );
#136 = FACE_OUTER_BOUND( '', #211, .T. );
#137 = FACE_OUTER_BOUND( '', #212, .T. );
#138 = CYLINDRICAL_SURFACE( '', #213, 11.0000000000000 );
#139 = SURFACE_STYLE_USAGE( .BOTH., #214 );
#140 = FACE_OUTER_BOUND( '', #215, .T. );
#141 = FACE_OUTER_BOUND( '', #216, .T. );
#142 = TOROIDAL_SURFACE( '', #217, 5.00000000000000, 0.500000000000000 );
#143 = SURFACE_STYLE_USAGE( .BOTH., #218 );
#144 = FACE_OUTER_BOUND( '', #219, .T. );
#145 = FACE_BOUND( '', #220, .T. );
#146 = CONICAL_SURFACE( '', #221, 3.32350000000000, 0.785398163397448 );
#147 = SURFACE_STYLE_USAGE( .BOTH., #222 );
#148 = FACE_BOUND( '', #223, .T. );
#149 = FACE_OUTER_BOUND( '', #224, .T. );
#150 = CONICAL_SURFACE( '', #225, 4.32350000000000, 0.785398163397448 );
#151 = SURFACE_STYLE_USAGE( .BOTH., #226 );
#152 = FACE_OUTER_BOUND( '', #227, .T. );
#153 = FACE_OUTER_BOUND( '', #228, .T. );
#154 = CYLINDRICAL_SURFACE( '', #229, 3.32350000000000 );
#155 = SURFACE_STYLE_USAGE( .BOTH., #230 );
#156 = FACE_OUTER_BOUND( '', #231, .T. );
#157 = FACE_OUTER_BOUND( '', #232, .T. );
#158 = SPHERICAL_SURFACE( '', #233, 25.0000000000000 );
#159 = PRODUCT_CONTEXT( '', #27, 'mechanical' );
#160 = PRODUCT_DEFINITION_FORMATION_WITH_SPECIFIED_SOURCE( ' ', 'NONE', #74, .NOT_KNOWN. );
#161 = CLOSED_SHELL( '', ( #43, #65, #71, #69, #67, #47, #49, #73, #41, #59, #57, #51, #53, #63, #45, #55, #61 ) );
#162 = CARTESIAN_POINT( '', ( 0.000000000000000, 0.000000000000000, 0.000000000000000 ) );
#163 = DIRECTION( '', ( 0.000000000000000, 0.000000000000000, 1.00000000000000 ) );
#164 = DIRECTION( '', ( 1.00000000000000, 0.000000000000000, 0.000000000000000 ) );
#165 =  ( LENGTH_UNIT(  )NAMED_UNIT( #83 )SI_UNIT( .MILLI., .METRE. ) );
#166 = SURFACE_SIDE_STYLE( '', ( #235 ) );
#167 = EDGE_LOOP( '', ( #236 ) );
#168 = EDGE_LOOP( '', ( #237 ) );
#169 = AXIS2_PLACEMENT_3D( '', #238, #239, #240 );
#170 = SURFACE_SIDE_STYLE( '', ( #241 ) );
#171 = EDGE_LOOP( '', ( #242 ) );
#172 = EDGE_LOOP( '', ( #243 ) );
#173 = AXIS2_PLACEMENT_3D( '', #244, #245, #246 );
#174 = SURFACE_SIDE_STYLE( '', ( #247 ) );
#175 = EDGE_LOOP( '', ( #248 ) );
#176 = EDGE_LOOP( '', ( #249 ) );
#177 = AXIS2_PLACEMENT_3D( '', #250, #251, #252 );
#178 = SURFACE_SIDE_STYLE( '', ( #253 ) );
#179 = EDGE_LOOP( '', ( #254 ) );
#180 = EDGE_LOOP( '', ( #255 ) );
#181 = AXIS2_PLACEMENT_3D( '', #256, #257, #258 );
#182 = SURFACE_SIDE_STYLE( '', ( #259 ) );
#183 = EDGE_LOOP( '', ( #260 ) );
#184 = EDGE_LOOP( '', ( #261 ) );
#185 = AXIS2_PLACEMENT_3D( '', #262, #263, #264 );
#186 = SURFACE_SIDE_STYLE( '', ( #265 ) );
#187 = EDGE_LOOP( '', ( #266 ) );
#188 = EDGE_LOOP( '', ( #267 ) );
#189 = AXIS2_PLACEMENT_3D( '', #268, #269, #270 );
#190 = SURFACE_SIDE_STYLE( '', ( #271 ) );
#191 = EDGE_LOOP( '', ( #272 ) );
#192 = EDGE_LOOP( '', ( #273 ) );
#193 = AXIS2_PLACEMENT_3D( '', #274, #275, #276 );
#194 = SURFACE_SIDE_STYLE( '', ( #277 ) );
#195 = EDGE_LOOP( '', ( #278 ) );
#196 = EDGE_LOOP( '', ( #279 ) );
#197 = AXIS2_PLACEMENT_3D( '', #280, #281, #282 );
#198 = SURFACE_SIDE_STYLE( '', ( #283 ) );
#199 = EDGE_LOOP( '', ( #284 ) );
#200 = EDGE_LOOP( '', ( #285 ) );
#201 = AXIS2_PLACEMENT_3D( '', #286, #287, #288 );
#202 = SURFACE_SIDE_STYLE( '', ( #289 ) );
#203 = EDGE_LOOP( '', ( #290 ) );
#204 = EDGE_LOOP( '', ( #291 ) );
#205 = AXIS2_PLACEMENT_3D( '', #292, #293, #294 );
#206 = SURFACE_SIDE_STYLE( '', ( #295 ) );
#207 = EDGE_LOOP( '', ( #296 ) );
#208 = EDGE_LOOP( '', ( #297 ) );
#209 = AXIS2_PLACEMENT_3D( '', #298, #299, #300 );
#210 = SURFACE_SIDE_STYLE( '', ( #301 ) );
#211 = EDGE_LOOP( '', ( #302 ) );
#212 = EDGE_LOOP( '', ( #303 ) );
#213 = AXIS2_PLACEMENT_3D( '', #304, #305, #306 );
#214 = SURFACE_SIDE_STYLE( '', ( #307 ) );
#215 = EDGE_LOOP( '', ( #308 ) );
#216 = EDGE_LOOP( '', ( #309 ) );
#217 = AXIS2_PLACEMENT_3D( '', #310, #311, #312 );
#218 = SURFACE_SIDE_STYLE( '', ( #313 ) );
#219 = EDGE_LOOP( '', ( #314 ) );
#220 = EDGE_LOOP( '', ( #315 ) );
#221 = AXIS2_PLACEMENT_3D( '', #316, #317, #318 );
#222 = SURFACE_SIDE_STYLE( '', ( #319 ) );
#223 = EDGE_LOOP( '', ( #320 ) );
#224 = EDGE_LOOP( '', ( #321 ) );
#225 = AXIS2_PLACEMENT_3D( '', #322, #323, #324 );
#226 = SURFACE_SIDE_STYLE( '', ( #325 ) );
#227 = EDGE_LOOP( '', ( #326 ) );
#228 = EDGE_LOOP( '', ( #327 ) );
#229 = AXIS2_PLACEMENT_3D( '', #328, #329, #330 );
#230 = SURFACE_SIDE_STYLE( '', ( #331 ) );
#231 = EDGE_LOOP( '', ( #332 ) );
#232 = EDGE_LOOP( '', ( #333 ) );
#233 = AXIS2_PLACEMENT_3D( '', #334, #335, #336 );
#235 = SURFACE_STYLE_FILL_AREA( #337 );
#236 = ORIENTED_EDGE( '', *, *, #338, .F. );
#237 = ORIENTED_EDGE( '', *, *, #339, .T. );
#238 = CARTESIAN_POINT( '', ( 9.62964972193618E-032, 8.67361737988404E-016, 0.199783024432254 ) );
#239 = DIRECTION( '', ( 0.000000000000000, 0.000000000000000, 1.00000000000000 ) );
#240 = DIRECTION( '', ( 1.00000000000000, 0.000000000000000, 0.000000000000000 ) );
#241 = SURFACE_STYLE_FILL_AREA( #340 );
#242 = ORIENTED_EDGE( '', *, *, #339, .F. );
#243 = ORIENTED_EDGE( '', *, *, #341, .T. );
#244 = CARTESIAN_POINT( '', ( 4.46984378064763E-016, 7.30004995759798, -0.000216975567746431 ) );
#245 = DIRECTION( '', ( 0.000000000000000, 0.000000000000000, 1.00000000000000 ) );
#246 = DIRECTION( '', ( 1.00000000000000, 0.000000000000000, 0.000000000000000 ) );
#247 = SURFACE_STYLE_FILL_AREA( #342 );
#248 = ORIENTED_EDGE( '', *, *, #343, .F. );
#249 = ORIENTED_EDGE( '', *, *, #344, .T. );
#250 = CARTESIAN_POINT( '', ( 7.35646653897199E-032, 1.20144183737250E-015, 6.79978302443226 ) );
#251 = DIRECTION( '', ( -0.000000000000000, 0.000000000000000, -1.00000000000000 ) );
#252 = DIRECTION( '', ( -1.00000000000000, 0.000000000000000, 0.000000000000000 ) );
#253 = SURFACE_STYLE_FILL_AREA( #345 );
#254 = ORIENTED_EDGE( '', *, *, #346, .T. );
#255 = ORIENTED_EDGE( '', *, *, #347, .T. );
#256 = CARTESIAN_POINT( '', ( 5.50000000000000, -2.57386614192084E-015, 11.0997830244323 ) );
#257 = DIRECTION( '', ( -1.06632301866444E-016, -1.11022302462516E-016, -1.00000000000000 ) );
#258 = DIRECTION( '', ( 1.00000000000000, -7.34683218904822E-032, -1.06632301866444E-016 ) );
#259 = SURFACE_STYLE_FILL_AREA( #348 );
#260 = ORIENTED_EDGE( '', *, *, #349, .T. );
#261 = ORIENTED_EDGE( '', *, *, #346, .F. );
#262 = CARTESIAN_POINT( '', ( 0.000000000000000, 0.000000000000000, 54.0000000000000 ) );
#263 = DIRECTION( '', ( -0.000000000000000, -0.000000000000000, -1.00000000000000 ) );
#264 = DIRECTION( '', ( 1.00000000000000, 0.000000000000000, 0.000000000000000 ) );
#265 = SURFACE_STYLE_FILL_AREA( #350 );
#266 = ORIENTED_EDGE( '', *, *, #351, .F. );
#267 = ORIENTED_EDGE( '', *, *, #352, .T. );
#268 = CARTESIAN_POINT( '', ( 6.61287431064084E-016, 10.8000000000000, 5.99978302443226 ) );
#269 = DIRECTION( '', ( 0.000000000000000, 0.000000000000000, 1.00000000000000 ) );
#270 = DIRECTION( '', ( 1.00000000000000, 0.000000000000000, 0.000000000000000 ) );
#271 = SURFACE_STYLE_FILL_AREA( #353 );
#272 = ORIENTED_EDGE( '', *, *, #354, .F. );
#273 = ORIENTED_EDGE( '', *, *, #351, .T. );
#274 = CARTESIAN_POINT( '', ( 9.62964972193618E-032, 1.73472347597680E-015, 6.19978302443226 ) );
#275 = DIRECTION( '', ( 0.000000000000000, 0.000000000000000, 1.00000000000000 ) );
#276 = DIRECTION( '', ( 1.00000000000000, 0.000000000000000, 0.000000000000000 ) );
#277 = SURFACE_STYLE_FILL_AREA( #355 );
#278 = ORIENTED_EDGE( '', *, *, #356, .F. );
#279 = ORIENTED_EDGE( '', *, *, #343, .T. );
#280 = CARTESIAN_POINT( '', ( 9.62964972193618E-032, 1.73472347597680E-015, 12.3997830244323 ) );
#281 = DIRECTION( '', ( 0.000000000000000, 0.000000000000000, 1.00000000000000 ) );
#282 = DIRECTION( '', ( 1.00000000000000, 0.000000000000000, 0.000000000000000 ) );
#283 = SURFACE_STYLE_FILL_AREA( #357 );
#284 = ORIENTED_EDGE( '', *, *, #352, .F. );
#285 = ORIENTED_EDGE( '', *, *, #358, .T. );
#286 = CARTESIAN_POINT( '', ( 9.62964972193618E-032, 8.67361737988404E-016, 5.80020748887150 ) );
#287 = DIRECTION( '', ( 0.000000000000000, 0.000000000000000, 1.00000000000000 ) );
#288 = DIRECTION( '', ( 1.00000000000000, 0.000000000000000, 0.000000000000000 ) );
#289 = SURFACE_STYLE_FILL_AREA( #359 );
#290 = ORIENTED_EDGE( '', *, *, #358, .F. );
#291 = ORIENTED_EDGE( '', *, *, #338, .T. );
#292 = CARTESIAN_POINT( '', ( 7.35646653897199E-032, 1.20144183737250E-015, 0.204252984547043 ) );
#293 = DIRECTION( '', ( -0.000000000000000, 0.000000000000000, -1.00000000000000 ) );
#294 = DIRECTION( '', ( -1.00000000000000, 0.000000000000000, 0.000000000000000 ) );
#295 = SURFACE_STYLE_FILL_AREA( #360 );
#296 = ORIENTED_EDGE( '', *, *, #361, .F. );
#297 = ORIENTED_EDGE( '', *, *, #356, .T. );
#298 = CARTESIAN_POINT( '', ( 6.03289139112403E-016, 9.85278472922095, 12.5997830244323 ) );
#299 = DIRECTION( '', ( 0.000000000000000, 0.000000000000000, -1.00000000000000 ) );
#300 = DIRECTION( '', ( -1.00000000000000, 0.000000000000000, 0.000000000000000 ) );
#301 = SURFACE_STYLE_FILL_AREA( #362 );
#302 = ORIENTED_EDGE( '', *, *, #344, .F. );
#303 = ORIENTED_EDGE( '', *, *, #354, .T. );
#304 = CARTESIAN_POINT( '', ( 7.35646653897199E-032, 1.20144183737250E-015, 9.81084112149533 ) );
#305 = DIRECTION( '', ( -0.000000000000000, -0.000000000000000, -1.00000000000000 ) );
#306 = DIRECTION( '', ( 1.00000000000000, 0.000000000000000, 0.000000000000000 ) );
#307 = SURFACE_STYLE_FILL_AREA( #363 );
#308 = ORIENTED_EDGE( '', *, *, #364, .F. );
#309 = ORIENTED_EDGE( '', *, *, #349, .F. );
#310 = CARTESIAN_POINT( '', ( 0.000000000000000, 0.000000000000000, 12.9841529348552 ) );
#311 = DIRECTION( '', ( 0.000000000000000, 0.000000000000000, -1.00000000000000 ) );
#312 = DIRECTION( '', ( -1.00000000000000, 0.000000000000000, 0.000000000000000 ) );
#313 = SURFACE_STYLE_FILL_AREA( #365 );
#314 = ORIENTED_EDGE( '', *, *, #341, .F. );
#315 = ORIENTED_EDGE( '', *, *, #366, .F. );
#316 = CARTESIAN_POINT( '', ( -3.36281465008717E-015, -6.66524127557189E-015, 0.999783024432261 ) );
#317 = DIRECTION( '', ( -1.06632301866444E-016, -1.11022302462516E-016, -1.00000000000000 ) );
#318 = DIRECTION( '', ( 1.00000000000000, -7.34683218904822E-032, -1.06632301866444E-016 ) );
#319 = SURFACE_STYLE_FILL_AREA( #367 );
#320 = ORIENTED_EDGE( '', *, *, #368, .F. );
#321 = ORIENTED_EDGE( '', *, *, #347, .F. );
#322 = CARTESIAN_POINT( '', ( -2.28582840123608E-015, -5.54391602070048E-015, 11.0997830244323 ) );
#323 = DIRECTION( '', ( 1.06632301866444E-016, 1.11022302462516E-016, 1.00000000000000 ) );
#324 = DIRECTION( '', ( -1.00000000000000, 7.34683218904822E-032, 1.06632301866444E-016 ) );
#325 = SURFACE_STYLE_FILL_AREA( #369 );
#326 = ORIENTED_EDGE( '', *, *, #366, .T. );
#327 = ORIENTED_EDGE( '', *, *, #368, .T. );
#328 = CARTESIAN_POINT( '', ( -1.38225753406983E-015, -4.60314557539494E-015, 19.5734898782706 ) );
#329 = DIRECTION( '', ( 1.06632301866444E-016, 1.11022302462516E-016, 1.00000000000000 ) );
#330 = DIRECTION( '', ( 1.00000000000000, -7.34683218904822E-032, -1.06632301866444E-016 ) );
#331 = SURFACE_STYLE_FILL_AREA( #370 );
#332 = ORIENTED_EDGE( '', *, *, #364, .T. );
#333 = ORIENTED_EDGE( '', *, *, #361, .T. );
#334 = CARTESIAN_POINT( '', ( 1.34971091912675E-031, 2.20431800784617E-015, -11.0002169755677 ) );
#335 = DIRECTION( '', ( 0.000000000000000, 0.000000000000000, 1.00000000000000 ) );
#336 = DIRECTION( '', ( 6.12303176911189E-017, 1.00000000000000, 0.000000000000000 ) );
#337 = FILL_AREA_STYLE( '', ( #371 ) );
#338 = EDGE_CURVE( '', #372, #372, #373, .T. );
#339 = EDGE_CURVE( '', #374, #374, #375, .T. );
#340 = FILL_AREA_STYLE( '', ( #376 ) );
#341 = EDGE_CURVE( '', #377, #377, #378, .T. );
#342 = FILL_AREA_STYLE( '', ( #379 ) );
#343 = EDGE_CURVE( '', #380, #380, #381, .T. );
#344 = EDGE_CURVE( '', #382, #382, #383, .T. );
#345 = FILL_AREA_STYLE( '', ( #384 ) );
#346 = EDGE_CURVE( '', #385, #385, #386, .T. );
#347 = EDGE_CURVE( '', #387, #387, #388, .T. );
#348 = FILL_AREA_STYLE( '', ( #389 ) );
#349 = EDGE_CURVE( '', #390, #390, #391, .F. );
#350 = FILL_AREA_STYLE( '', ( #392 ) );
#351 = EDGE_CURVE( '', #393, #393, #394, .T. );
#352 = EDGE_CURVE( '', #395, #395, #396, .T. );
#353 = FILL_AREA_STYLE( '', ( #397 ) );
#354 = EDGE_CURVE( '', #398, #398, #399, .T. );
#355 = FILL_AREA_STYLE( '', ( #400 ) );
#356 = EDGE_CURVE( '', #401, #401, #402, .T. );
#357 = FILL_AREA_STYLE( '', ( #403 ) );
#358 = EDGE_CURVE( '', #404, #404, #405, .T. );
#359 = FILL_AREA_STYLE( '', ( #406 ) );
#360 = FILL_AREA_STYLE( '', ( #407 ) );
#361 = EDGE_CURVE( '', #408, #408, #409, .T. );
#362 = FILL_AREA_STYLE( '', ( #410 ) );
#363 = FILL_AREA_STYLE( '', ( #411 ) );
#364 = EDGE_CURVE( '', #412, #412, #413, .T. );
#365 = FILL_AREA_STYLE( '', ( #414 ) );
#366 = EDGE_CURVE( '', #415, #415, #416, .F. );
#367 = FILL_AREA_STYLE( '', ( #417 ) );
#368 = EDGE_CURVE( '', #418, #418, #419, .F. );
#369 = FILL_AREA_STYLE( '', ( #420 ) );
#370 = FILL_AREA_STYLE( '', ( #421 ) );
#371 = FILL_AREA_STYLE_COLOUR( '', #422 );
#372 = VERTEX_POINT( '', #423 );
#373 = CIRCLE( '', #424, 7.50000000000000 );
#374 = VERTEX_POINT( '', #425 );
#375 = CIRCLE( '', #426, 7.30004995759797 );
#376 = FILL_AREA_STYLE_COLOUR( '', #427 );
#377 = VERTEX_POINT( '', #428 );
#378 = CIRCLE( '', #429, 4.32350000000000 );
#379 = FILL_AREA_STYLE_COLOUR( '', #430 );
#380 = VERTEX_POINT( '', #431 );
#381 = CIRCLE( '', #432, 10.0500000000000 );
#382 = VERTEX_POINT( '', #433 );
#383 = CIRCLE( '', #434, 11.0000000000000 );
#384 = FILL_AREA_STYLE_COLOUR( '', #435 );
#385 = VERTEX_POINT( '', #436 );
#386 = CIRCLE( '', #437, 4.50000000000000 );
#387 = VERTEX_POINT( '', #438 );
#388 = CIRCLE( '', #439, 4.32350000000000 );
#389 = FILL_AREA_STYLE_COLOUR( '', #440 );
#390 = VERTEX_POINT( '', #441 );
#391 = CIRCLE( '', #442, 4.50000000000000 );
#392 = FILL_AREA_STYLE_COLOUR( '', #443 );
#393 = VERTEX_POINT( '', #444 );
#394 = CIRCLE( '', #445, 10.8000000000000 );
#395 = VERTEX_POINT( '', #446 );
#396 = CIRCLE( '', #447, 7.57452568398890 );
#397 = FILL_AREA_STYLE_COLOUR( '', #448 );
#398 = VERTEX_POINT( '', #449 );
#399 = CIRCLE( '', #450, 11.0000000000000 );
#400 = FILL_AREA_STYLE_COLOUR( '', #451 );
#401 = VERTEX_POINT( '', #452 );
#402 = CIRCLE( '', #453, 9.85278472922095 );
#403 = FILL_AREA_STYLE_COLOUR( '', #454 );
#404 = VERTEX_POINT( '', #455 );
#405 = CIRCLE( '', #456, 7.37500000000000 );
#406 = FILL_AREA_STYLE_COLOUR( '', #457 );
#407 = FILL_AREA_STYLE_COLOUR( '', #458 );
#408 = VERTEX_POINT( '', #459 );
#409 = CIRCLE( '', #460, 8.24863625092051 );
#410 = FILL_AREA_STYLE_COLOUR( '', #461 );
#411 = FILL_AREA_STYLE_COLOUR( '', #462 );
#412 = VERTEX_POINT( '', #463 );
#413 = CIRCLE( '', #464, 5.10204081632653 );
#414 = FILL_AREA_STYLE_COLOUR( '', #465 );
#415 = VERTEX_POINT( '', #466 );
#416 = CIRCLE( '', #467, 3.32350000000000 );
#417 = FILL_AREA_STYLE_COLOUR( '', #468 );
#418 = VERTEX_POINT( '', #469 );
#419 = CIRCLE( '', #470, 3.32350000000000 );
#420 = FILL_AREA_STYLE_COLOUR( '', #471 );
#421 = FILL_AREA_STYLE_COLOUR( '', #472 );
#422 = COLOUR_RGB( '', 0.200000002980232, 0.200000002980232, 0.200000002980232 );
#423 = CARTESIAN_POINT( '', ( 7.50000000000000, 1.20144183737250E-015, 0.204252984547043 ) );
#424 = AXIS2_PLACEMENT_3D( '', #473, #474, #475 );
#425 = CARTESIAN_POINT( '', ( 7.30004995759797, 1.20144183737250E-015, -0.000216975567745442 ) );
#426 = AXIS2_PLACEMENT_3D( '', #476, #477, #478 );
#427 = COLOUR_RGB( '', 0.752941191196442, 0.752941191196442, 0.752941191196442 );
#428 = CARTESIAN_POINT( '', ( -4.32350000000000, -6.77626357803440E-015, -0.000216975567739014 ) );
#429 = AXIS2_PLACEMENT_3D( '', #479, #480, #481 );
#430 = COLOUR_RGB( '', 0.200000002980232, 0.200000002980232, 0.200000002980232 );
#431 = CARTESIAN_POINT( '', ( 10.0500000000000, 1.20144183737250E-015, 12.4330416619802 ) );
#432 = AXIS2_PLACEMENT_3D( '', #482, #483, #484 );
#433 = CARTESIAN_POINT( '', ( 11.0000000000000, 1.20144183737250E-015, 6.79978302443226 ) );
#434 = AXIS2_PLACEMENT_3D( '', #485, #486, #487 );
#435 = COLOUR_RGB( '', 0.666666686534882, 0.400000005960464, 0.133333340287209 );
#436 = CARTESIAN_POINT( '', ( 4.50000000000000, 0.000000000000000, 11.0997830244323 ) );
#437 = AXIS2_PLACEMENT_3D( '', #488, #489, #490 );
#438 = CARTESIAN_POINT( '', ( 4.32350000000000, -5.54391602070048E-015, 11.0997830244323 ) );
#439 = AXIS2_PLACEMENT_3D( '', #491, #492, #493 );
#440 = COLOUR_RGB( '', 0.200000002980232, 0.200000002980232, 0.200000002980232 );
#441 = CARTESIAN_POINT( '', ( -4.50000000000000, 0.000000000000000, 12.9841529348552 ) );
#442 = AXIS2_PLACEMENT_3D( '', #494, #495, #496 );
#443 = COLOUR_RGB( '', 0.200000002980232, 0.200000002980232, 0.200000002980232 );
#444 = CARTESIAN_POINT( '', ( 10.8000000000000, 1.20144183737250E-015, 5.99978302443226 ) );
#445 = AXIS2_PLACEMENT_3D( '', #497, #498, #499 );
#446 = CARTESIAN_POINT( '', ( 7.57452568398890, 1.20144183737250E-015, 5.99978302443226 ) );
#447 = AXIS2_PLACEMENT_3D( '', #500, #501, #502 );
#448 = COLOUR_RGB( '', 0.200000002980232, 0.200000002980232, 0.200000002980232 );
#449 = CARTESIAN_POINT( '', ( 11.0000000000000, 1.20144183737250E-015, 6.19978302443226 ) );
#450 = AXIS2_PLACEMENT_3D( '', #503, #504, #505 );
#451 = COLOUR_RGB( '', 0.200000002980232, 0.200000002980232, 0.200000002980232 );
#452 = CARTESIAN_POINT( '', ( 9.85278472922095, 1.20144183737250E-015, 12.5997830244323 ) );
#453 = AXIS2_PLACEMENT_3D( '', #506, #507, #508 );
#454 = COLOUR_RGB( '', 0.200000002980232, 0.200000002980232, 0.200000002980232 );
#455 = CARTESIAN_POINT( '', ( 7.37500000000000, 1.20144183737250E-015, 5.79574701545227 ) );
#456 = AXIS2_PLACEMENT_3D( '', #509, #510, #511 );
#457 = COLOUR_RGB( '', 0.200000002980232, 0.200000002980232, 0.200000002980232 );
#458 = COLOUR_RGB( '', 0.200000002980232, 0.200000002980232, 0.200000002980232 );
#459 = CARTESIAN_POINT( '', ( 8.24863625092051, 1.20144183737250E-015, 12.5997830244323 ) );
#460 = AXIS2_PLACEMENT_3D( '', #512, #513, #514 );
#461 = COLOUR_RGB( '', 0.200000002980232, 0.200000002980232, 0.200000002980232 );
#462 = COLOUR_RGB( '', 0.200000002980232, 0.200000002980232, 0.200000002980232 );
#463 = CARTESIAN_POINT( '', ( -5.10204081632653, 2.20431800784617E-015, 13.4736298718026 ) );
#464 = AXIS2_PLACEMENT_3D( '', #515, #516, #517 );
#465 = COLOUR_RGB( '', 0.666666686534882, 0.400000005960464, 0.133333340287209 );
#466 = CARTESIAN_POINT( '', ( -3.32350000000000, -6.66524127557189E-015, 0.999783024432261 ) );
#467 = AXIS2_PLACEMENT_3D( '', #518, #519, #520 );
#468 = COLOUR_RGB( '', 0.666666686534882, 0.400000005960464, 0.133333340287209 );
#469 = CARTESIAN_POINT( '', ( 3.32350000000000, -5.65493832316300E-015, 10.0997830244323 ) );
#470 = AXIS2_PLACEMENT_3D( '', #521, #522, #523 );
#471 = COLOUR_RGB( '', 0.752941191196442, 0.752941191196442, 0.752941191196442 );
#472 = COLOUR_RGB( '', 0.200000002980232, 0.200000002980232, 0.200000002980232 );
#473 = CARTESIAN_POINT( '', ( 7.35646653897199E-032, 1.20144183737250E-015, 0.204252984547043 ) );
#474 = DIRECTION( '', ( 0.000000000000000, 0.000000000000000, 1.00000000000000 ) );
#475 = DIRECTION( '', ( 1.00000000000000, 0.000000000000000, 0.000000000000000 ) );
#476 = CARTESIAN_POINT( '', ( 7.35646653897199E-032, 1.20144183737250E-015, -0.000216975567745442 ) );
#477 = DIRECTION( '', ( 0.000000000000000, 0.000000000000000, 1.00000000000000 ) );
#478 = DIRECTION( '', ( 1.00000000000000, 0.000000000000000, 0.000000000000000 ) );
#479 = CARTESIAN_POINT( '', ( -3.46944695195362E-015, -6.77626357803440E-015, -0.000216975567738515 ) );
#480 = DIRECTION( '', ( 1.06632301866444E-016, 1.11022302462516E-016, 1.00000000000000 ) );
#481 = DIRECTION( '', ( -1.00000000000000, 7.34683218904822E-032, 1.06632301866444E-016 ) );
#482 = CARTESIAN_POINT( '', ( 7.35646653897199E-032, 1.20144183737250E-015, 12.4330416619802 ) );
#483 = DIRECTION( '', ( 0.000000000000000, 0.000000000000000, 1.00000000000000 ) );
#484 = DIRECTION( '', ( 1.00000000000000, 0.000000000000000, 0.000000000000000 ) );
#485 = CARTESIAN_POINT( '', ( 7.35646653897199E-032, 1.20144183737250E-015, 6.79978302443226 ) );
#486 = DIRECTION( '', ( 0.000000000000000, 0.000000000000000, 1.00000000000000 ) );
#487 = DIRECTION( '', ( 1.00000000000000, 0.000000000000000, 0.000000000000000 ) );
#488 = CARTESIAN_POINT( '', ( 0.000000000000000, 0.000000000000000, 11.0997830244323 ) );
#489 = DIRECTION( '', ( 0.000000000000000, 0.000000000000000, 1.00000000000000 ) );
#490 = DIRECTION( '', ( 1.00000000000000, 0.000000000000000, 0.000000000000000 ) );
#491 = CARTESIAN_POINT( '', ( -2.28582840123608E-015, -5.54391602070048E-015, 11.0997830244323 ) );
#492 = DIRECTION( '', ( -1.06632301866444E-016, -1.11022302462516E-016, -1.00000000000000 ) );
#493 = DIRECTION( '', ( 1.00000000000000, -7.34683218904822E-032, -1.06632301866444E-016 ) );
#494 = CARTESIAN_POINT( '', ( 0.000000000000000, 0.000000000000000, 12.9841529348552 ) );
#495 = DIRECTION( '', ( 0.000000000000000, 0.000000000000000, -1.00000000000000 ) );
#496 = DIRECTION( '', ( -1.00000000000000, 0.000000000000000, 0.000000000000000 ) );
#497 = CARTESIAN_POINT( '', ( 7.35646653897199E-032, 1.20144183737250E-015, 5.99978302443226 ) );
#498 = DIRECTION( '', ( 0.000000000000000, 0.000000000000000, 1.00000000000000 ) );
#499 = DIRECTION( '', ( 1.00000000000000, 0.000000000000000, 0.000000000000000 ) );
#500 = CARTESIAN_POINT( '', ( 7.35646653897199E-032, 1.20144183737250E-015, 5.99978302443226 ) );
#501 = DIRECTION( '', ( 0.000000000000000, 0.000000000000000, 1.00000000000000 ) );
#502 = DIRECTION( '', ( 1.00000000000000, 0.000000000000000, 0.000000000000000 ) );
#503 = CARTESIAN_POINT( '', ( 7.35646653897199E-032, 1.20144183737250E-015, 6.19978302443226 ) );
#504 = DIRECTION( '', ( 0.000000000000000, 0.000000000000000, 1.00000000000000 ) );
#505 = DIRECTION( '', ( 1.00000000000000, 0.000000000000000, 0.000000000000000 ) );
#506 = CARTESIAN_POINT( '', ( 7.35646653897199E-032, 1.20144183737250E-015, 12.5997830244323 ) );
#507 = DIRECTION( '', ( 0.000000000000000, 0.000000000000000, 1.00000000000000 ) );
#508 = DIRECTION( '', ( 1.00000000000000, 0.000000000000000, 0.000000000000000 ) );
#509 = CARTESIAN_POINT( '', ( 7.35646653897199E-032, 1.20144183737250E-015, 5.79574701545227 ) );
#510 = DIRECTION( '', ( 0.000000000000000, 0.000000000000000, 1.00000000000000 ) );
#511 = DIRECTION( '', ( 1.00000000000000, 0.000000000000000, 0.000000000000000 ) );
#512 = CARTESIAN_POINT( '', ( 7.35646653897199E-032, 1.20144183737250E-015, 12.5997830244323 ) );
#513 = DIRECTION( '', ( 0.000000000000000, 0.000000000000000, 1.00000000000000 ) );
#514 = DIRECTION( '', ( 1.00000000000000, 0.000000000000000, 0.000000000000000 ) );
#515 = CARTESIAN_POINT( '', ( 1.34971091912675E-031, 2.20431800784617E-015, 13.4736298718026 ) );
#516 = DIRECTION( '', ( 0.000000000000000, 0.000000000000000, -1.00000000000000 ) );
#517 = DIRECTION( '', ( -1.00000000000000, 0.000000000000000, 0.000000000000000 ) );
#518 = CARTESIAN_POINT( '', ( -3.36281465008717E-015, -6.66524127557189E-015, 0.999783024432261 ) );
#519 = DIRECTION( '', ( 1.06632301866444E-016, 1.11022302462516E-016, 1.00000000000000 ) );
#520 = DIRECTION( '', ( -1.00000000000000, 7.34683218904822E-032, 1.06632301866444E-016 ) );
#521 = CARTESIAN_POINT( '', ( -2.39246070310252E-015, -5.65493832316300E-015, 10.0997830244323 ) );
#522 = DIRECTION( '', ( -1.06632301866444E-016, -1.11022302462516E-016, -1.00000000000000 ) );
#523 = DIRECTION( '', ( 1.00000000000000, -7.34683218904822E-032, -1.06632301866444E-016 ) );
ENDSEC;
END-ISO-10303-21;
