ISO-10303-21;
HEADER;
FILE_DESCRIPTION( ( 'Unknown' ), '1' );
FILE_NAME( 'E:/98-Dis_3D_per_controllo/ZB/6332050_ZB15_M04/6332050_ZB15_M04.stp', 'Unknown', ( 'Unknown' ), ( 'Unknown' ), 'PSStep 11.0', 'Unknown', '  ' );
FILE_SCHEMA( ( 'AUTOMOTIVE_DESIGN { 1 0 10303 214 1 1 1 1 }' ) );
ENDSEC;
DATA;
#1 = MECHANICAL_DESIGN_GEOMETRIC_PRESENTATION_REPRESENTATION( ' ', ( #10, #11, #12, #13, #14, #15, #16, #17, #18, #19, #20, #21, #22 ), #6 );
#2 = PRODUCT_DEFINITION_CONTEXT( '', #23, 'design' );
#3 = APPLICATION_PROTOCOL_DEFINITION( 'INTERNATIONAL STANDARD', 'automotive_design', 2001, #23 );
#4 = PRODUCT_CATEGORY_RELATIONSHIP( 'NONE', 'NONE', #24, #25 );
#5 = SHAPE_DEFINITION_REPRESENTATION( #26, #27 );
#6 =  ( GEOMETRIC_REPRESENTATION_CONTEXT( 3 )GLOBAL_UNCERTAINTY_ASSIGNED_CONTEXT( ( #30 ) )GLOBAL_UNIT_ASSIGNED_CONTEXT( ( #32, #33, #34 ) )REPRESENTATION_CONTEXT( 'NONE', 'WORKSPACE' ) );
#10 = STYLED_ITEM( '', ( #36 ), #37 );
#11 = STYLED_ITEM( '', ( #38 ), #39 );
#12 = STYLED_ITEM( '', ( #40 ), #41 );
#13 = STYLED_ITEM( '', ( #42 ), #43 );
#14 = STYLED_ITEM( '', ( #44 ), #45 );
#15 = STYLED_ITEM( '', ( #46 ), #47 );
#16 = STYLED_ITEM( '', ( #48 ), #49 );
#17 = STYLED_ITEM( '', ( #50 ), #51 );
#18 = STYLED_ITEM( '', ( #52 ), #53 );
#19 = STYLED_ITEM( '', ( #54 ), #55 );
#20 = STYLED_ITEM( '', ( #56 ), #57 );
#21 = STYLED_ITEM( '', ( #58 ), #59 );
#22 = STYLED_ITEM( '', ( #60 ), #61 );
#23 = APPLICATION_CONTEXT( 'core data for automotive mechanical design processes' );
#24 = PRODUCT_CATEGORY( 'part', 'NONE' );
#25 = PRODUCT_RELATED_PRODUCT_CATEGORY( 'detail', ' ', ( #62 ) );
#26 = PRODUCT_DEFINITION_SHAPE( 'NONE', 'NONE', #63 );
#27 = ADVANCED_BREP_SHAPE_REPRESENTATION( '6332050', ( #64, #65 ), #6 );
#30 = UNCERTAINTY_MEASURE_WITH_UNIT( LENGTH_MEASURE( 0.00100000000000000 ), #32, '', '' );
#32 =  ( CONVERSION_BASED_UNIT( 'MILLIMETRE', #68 )LENGTH_UNIT(  )NAMED_UNIT( #71 ) );
#33 =  ( NAMED_UNIT( #73 )PLANE_ANGLE_UNIT(  )SI_UNIT( $, .RADIAN. ) );
#34 =  ( NAMED_UNIT( #73 )SI_UNIT( $, .STERADIAN. )SOLID_ANGLE_UNIT(  ) );
#36 = PRESENTATION_STYLE_ASSIGNMENT( ( #79 ) );
#37 = ADVANCED_FACE( '', ( #80, #81 ), #82, .T. );
#38 = PRESENTATION_STYLE_ASSIGNMENT( ( #83 ) );
#39 = ADVANCED_FACE( '', ( #84, #85 ), #86, .F. );
#40 = PRESENTATION_STYLE_ASSIGNMENT( ( #87 ) );
#41 = ADVANCED_FACE( '', ( #88, #89 ), #90, .T. );
#42 = PRESENTATION_STYLE_ASSIGNMENT( ( #91 ) );
#43 = ADVANCED_FACE( '', ( #92, #93 ), #94, .F. );
#44 = PRESENTATION_STYLE_ASSIGNMENT( ( #95 ) );
#45 = ADVANCED_FACE( '', ( #96, #97 ), #98, .F. );
#46 = PRESENTATION_STYLE_ASSIGNMENT( ( #99 ) );
#47 = ADVANCED_FACE( '', ( #100 ), #101, .T. );
#48 = PRESENTATION_STYLE_ASSIGNMENT( ( #102 ) );
#49 = ADVANCED_FACE( '', ( #103, #104 ), #105, .T. );
#50 = PRESENTATION_STYLE_ASSIGNMENT( ( #106 ) );
#51 = ADVANCED_FACE( '', ( #107, #108 ), #109, .F. );
#52 = PRESENTATION_STYLE_ASSIGNMENT( ( #110 ) );
#53 = ADVANCED_FACE( '', ( #111, #112 ), #113, .T. );
#54 = PRESENTATION_STYLE_ASSIGNMENT( ( #114 ) );
#55 = ADVANCED_FACE( '', ( #115, #116 ), #117, .T. );
#56 = PRESENTATION_STYLE_ASSIGNMENT( ( #118 ) );
#57 = ADVANCED_FACE( '', ( #119, #120 ), #121, .F. );
#58 = PRESENTATION_STYLE_ASSIGNMENT( ( #122 ) );
#59 = ADVANCED_FACE( '', ( #123, #124 ), #125, .F. );
#60 = PRESENTATION_STYLE_ASSIGNMENT( ( #126 ) );
#61 = ADVANCED_FACE( '', ( #127, #128 ), #129, .T. );
#62 = PRODUCT( '6332050', '6332050', 'PART-6332050-DESC', ( #130 ) );
#63 = PRODUCT_DEFINITION( 'NONE', 'NONE', #131, #2 );
#64 = MANIFOLD_SOLID_BREP( '6332050', #132 );
#65 = AXIS2_PLACEMENT_3D( '', #133, #134, #135 );
#68 = LENGTH_MEASURE_WITH_UNIT( LENGTH_MEASURE( 1.00000000000000 ), #136 );
#71 = DIMENSIONAL_EXPONENTS( 1.00000000000000, 0.000000000000000, 0.000000000000000, 0.000000000000000, 0.000000000000000, 0.000000000000000, 0.000000000000000 );
#73 = DIMENSIONAL_EXPONENTS( 0.000000000000000, 0.000000000000000, 0.000000000000000, 0.000000000000000, 0.000000000000000, 0.000000000000000, 0.000000000000000 );
#79 = SURFACE_STYLE_USAGE( .BOTH., #137 );
#80 = FACE_OUTER_BOUND( '', #138, .T. );
#81 = FACE_OUTER_BOUND( '', #139, .T. );
#82 = TOROIDAL_SURFACE( '', #140, 5.00000000000000, 0.500000000000000 );
#83 = SURFACE_STYLE_USAGE( .BOTH., #141 );
#84 = FACE_OUTER_BOUND( '', #142, .T. );
#85 = FACE_BOUND( '', #143, .T. );
#86 = PLANE( '', #144 );
#87 = SURFACE_STYLE_USAGE( .BOTH., #145 );
#88 = FACE_OUTER_BOUND( '', #146, .T. );
#89 = FACE_OUTER_BOUND( '', #147, .T. );
#90 = TOROIDAL_SURFACE( '', #148, 6.80116032459969, 0.200000000000000 );
#91 = SURFACE_STYLE_USAGE( .BOTH., #149 );
#92 = FACE_BOUND( '', #150, .T. );
#93 = FACE_OUTER_BOUND( '', #151, .T. );
#94 = CONICAL_SURFACE( '', #152, 2.12100000000000, 0.785398163397448 );
#95 = SURFACE_STYLE_USAGE( .BOTH., #153 );
#96 = FACE_OUTER_BOUND( '', #154, .T. );
#97 = FACE_OUTER_BOUND( '', #155, .T. );
#98 = CYLINDRICAL_SURFACE( '', #156, 1.62100000000000 );
#99 = SURFACE_STYLE_USAGE( .BOTH., #157 );
#100 = FACE_OUTER_BOUND( '', #158, .T. );
#101 = SPHERICAL_SURFACE( '', #159, 9.62857142857139 );
#102 = SURFACE_STYLE_USAGE( .BOTH., #160 );
#103 = FACE_OUTER_BOUND( '', #161, .T. );
#104 = FACE_OUTER_BOUND( '', #162, .T. );
#105 = CYLINDRICAL_SURFACE( '', #163, 7.50000000000000 );
#106 = SURFACE_STYLE_USAGE( .BOTH., #164 );
#107 = FACE_OUTER_BOUND( '', #165, .T. );
#108 = FACE_BOUND( '', #166, .T. );
#109 = CONICAL_SURFACE( '', #167, 1.62100000000000, 1.02974425867665 );
#110 = SURFACE_STYLE_USAGE( .BOTH., #168 );
#111 = FACE_BOUND( '', #169, .T. );
#112 = FACE_OUTER_BOUND( '', #170, .T. );
#113 = CONICAL_SURFACE( '', #171, 7.50000000000000, 0.107770510795142 );
#114 = SURFACE_STYLE_USAGE( .BOTH., #172 );
#115 = FACE_OUTER_BOUND( '', #173, .T. );
#116 = FACE_OUTER_BOUND( '', #174, .T. );
#117 = TOROIDAL_SURFACE( '', #175, 7.30000000000000, 0.200000000000000 );
#118 = SURFACE_STYLE_USAGE( .BOTH., #176 );
#119 = FACE_BOUND( '', #177, .T. );
#120 = FACE_OUTER_BOUND( '', #178, .T. );
#121 = PLANE( '', #179 );
#122 = SURFACE_STYLE_USAGE( .BOTH., #180 );
#123 = FACE_OUTER_BOUND( '', #181, .T. );
#124 = FACE_BOUND( '', #182, .T. );
#125 = PLANE( '', #183 );
#126 = SURFACE_STYLE_USAGE( .BOTH., #184 );
#127 = FACE_OUTER_BOUND( '', #185, .T. );
#128 = FACE_OUTER_BOUND( '', #186, .T. );
#129 = CYLINDRICAL_SURFACE( '', #187, 5.50000000000000 );
#130 = PRODUCT_CONTEXT( '', #23, 'mechanical' );
#131 = PRODUCT_DEFINITION_FORMATION_WITH_SPECIFIED_SOURCE( ' ', 'NONE', #62, .NOT_KNOWN. );
#132 = CLOSED_SHELL( '', ( #59, #37, #51, #43, #45, #61, #39, #55, #49, #53, #41, #57, #47 ) );
#133 = CARTESIAN_POINT( '', ( 0.000000000000000, 0.000000000000000, 0.000000000000000 ) );
#134 = DIRECTION( '', ( 0.000000000000000, 0.000000000000000, 1.00000000000000 ) );
#135 = DIRECTION( '', ( 1.00000000000000, 0.000000000000000, 0.000000000000000 ) );
#136 =  ( LENGTH_UNIT(  )NAMED_UNIT( #71 )SI_UNIT( .MILLI., .METRE. ) );
#137 = SURFACE_SIDE_STYLE( '', ( #189 ) );
#138 = EDGE_LOOP( '', ( #190 ) );
#139 = EDGE_LOOP( '', ( #191 ) );
#140 = AXIS2_PLACEMENT_3D( '', #192, #193, #194 );
#141 = SURFACE_SIDE_STYLE( '', ( #195 ) );
#142 = EDGE_LOOP( '', ( #196 ) );
#143 = EDGE_LOOP( '', ( #197 ) );
#144 = AXIS2_PLACEMENT_3D( '', #198, #199, #200 );
#145 = SURFACE_SIDE_STYLE( '', ( #201 ) );
#146 = EDGE_LOOP( '', ( #202 ) );
#147 = EDGE_LOOP( '', ( #203 ) );
#148 = AXIS2_PLACEMENT_3D( '', #204, #205, #206 );
#149 = SURFACE_SIDE_STYLE( '', ( #207 ) );
#150 = EDGE_LOOP( '', ( #208 ) );
#151 = EDGE_LOOP( '', ( #209 ) );
#152 = AXIS2_PLACEMENT_3D( '', #210, #211, #212 );
#153 = SURFACE_SIDE_STYLE( '', ( #213 ) );
#154 = EDGE_LOOP( '', ( #214 ) );
#155 = EDGE_LOOP( '', ( #215 ) );
#156 = AXIS2_PLACEMENT_3D( '', #216, #217, #218 );
#157 = SURFACE_SIDE_STYLE( '', ( #219 ) );
#158 = EDGE_LOOP( '', ( #220 ) );
#159 = AXIS2_PLACEMENT_3D( '', #221, #222, #223 );
#160 = SURFACE_SIDE_STYLE( '', ( #224 ) );
#161 = EDGE_LOOP( '', ( #225 ) );
#162 = EDGE_LOOP( '', ( #226 ) );
#163 = AXIS2_PLACEMENT_3D( '', #227, #228, #229 );
#164 = SURFACE_SIDE_STYLE( '', ( #230 ) );
#165 = EDGE_LOOP( '', ( #231 ) );
#166 = VERTEX_LOOP( '', #232 );
#167 = AXIS2_PLACEMENT_3D( '', #233, #234, #235 );
#168 = SURFACE_SIDE_STYLE( '', ( #236 ) );
#169 = EDGE_LOOP( '', ( #237 ) );
#170 = EDGE_LOOP( '', ( #238 ) );
#171 = AXIS2_PLACEMENT_3D( '', #239, #240, #241 );
#172 = SURFACE_SIDE_STYLE( '', ( #242 ) );
#173 = EDGE_LOOP( '', ( #243 ) );
#174 = EDGE_LOOP( '', ( #244 ) );
#175 = AXIS2_PLACEMENT_3D( '', #245, #246, #247 );
#176 = SURFACE_SIDE_STYLE( '', ( #248 ) );
#177 = EDGE_LOOP( '', ( #249 ) );
#178 = EDGE_LOOP( '', ( #250 ) );
#179 = AXIS2_PLACEMENT_3D( '', #251, #252, #253 );
#180 = SURFACE_SIDE_STYLE( '', ( #254 ) );
#181 = EDGE_LOOP( '', ( #255 ) );
#182 = EDGE_LOOP( '', ( #256 ) );
#183 = AXIS2_PLACEMENT_3D( '', #257, #258, #259 );
#184 = SURFACE_SIDE_STYLE( '', ( #260 ) );
#185 = EDGE_LOOP( '', ( #261 ) );
#186 = EDGE_LOOP( '', ( #262 ) );
#187 = AXIS2_PLACEMENT_3D( '', #263, #264, #265 );
#189 = SURFACE_STYLE_FILL_AREA( #266 );
#190 = ORIENTED_EDGE( '', *, *, #267, .F. );
#191 = ORIENTED_EDGE( '', *, *, #268, .F. );
#192 = CARTESIAN_POINT( '', ( 7.35646653897199E-032, 1.20144183737250E-015, 0.499783024432253 ) );
#193 = DIRECTION( '', ( 0.000000000000000, 0.000000000000000, 1.00000000000000 ) );
#194 = DIRECTION( '', ( 1.00000000000000, 0.000000000000000, 0.000000000000000 ) );
#195 = SURFACE_STYLE_FILL_AREA( #269 );
#196 = ORIENTED_EDGE( '', *, *, #270, .F. );
#197 = ORIENTED_EDGE( '', *, *, #271, .T. );
#198 = CARTESIAN_POINT( '', ( 4.46981319145168E-016, 7.30000000000000, 6.99978302443225 ) );
#199 = DIRECTION( '', ( 0.000000000000000, 0.000000000000000, 1.00000000000000 ) );
#200 = DIRECTION( '', ( 1.00000000000000, 0.000000000000000, 0.000000000000000 ) );
#201 = SURFACE_STYLE_FILL_AREA( #272 );
#202 = ORIENTED_EDGE( '', *, *, #273, .F. );
#203 = ORIENTED_EDGE( '', *, *, #274, .T. );
#204 = CARTESIAN_POINT( '', ( 9.62964972193618E-032, 8.67361737988404E-016, 12.3997830244323 ) );
#205 = DIRECTION( '', ( 0.000000000000000, 0.000000000000000, 1.00000000000000 ) );
#206 = DIRECTION( '', ( 1.00000000000000, 0.000000000000000, 0.000000000000000 ) );
#207 = SURFACE_STYLE_FILL_AREA( #275 );
#208 = ORIENTED_EDGE( '', *, *, #276, .F. );
#209 = ORIENTED_EDGE( '', *, *, #277, .F. );
#210 = CARTESIAN_POINT( '', ( -4.43704633415198E-016, -7.66048564748758E-032, -0.000216975567748491 ) );
#211 = DIRECTION( '', ( 2.81217508625481E-017, 1.11022302462516E-016, -1.00000000000000 ) );
#212 = DIRECTION( '', ( 1.00000000000000, 9.20381011404099E-033, 2.81217508625481E-017 ) );
#213 = SURFACE_STYLE_FILL_AREA( #278 );
#214 = ORIENTED_EDGE( '', *, *, #276, .T. );
#215 = ORIENTED_EDGE( '', *, *, #279, .T. );
#216 = CARTESIAN_POINT( '', ( -4.43704633415198E-016, -8.46057269571861E-032, -0.000216975567748419 ) );
#217 = DIRECTION( '', ( 2.81217508625479E-017, 1.11022302462516E-016, -1.00000000000000 ) );
#218 = DIRECTION( '', ( 1.00000000000000, 9.20381011404100E-033, 2.81217508625479E-017 ) );
#219 = SURFACE_STYLE_FILL_AREA( #280 );
#220 = ORIENTED_EDGE( '', *, *, #281, .T. );
#221 = CARTESIAN_POINT( '', ( -3.71761843391056E-031, -6.07153216591882E-015, 4.37121159586087 ) );
#222 = DIRECTION( '', ( 0.000000000000000, 0.000000000000000, 1.00000000000000 ) );
#223 = DIRECTION( '', ( 6.12303176911189E-017, 1.00000000000000, 0.000000000000000 ) );
#224 = SURFACE_STYLE_FILL_AREA( #282 );
#225 = ORIENTED_EDGE( '', *, *, #283, .F. );
#226 = ORIENTED_EDGE( '', *, *, #284, .T. );
#227 = CARTESIAN_POINT( '', ( 7.35646653897199E-032, 1.20144183737250E-015, 9.81084112149533 ) );
#228 = DIRECTION( '', ( -0.000000000000000, -0.000000000000000, -1.00000000000000 ) );
#229 = DIRECTION( '', ( 1.00000000000000, 0.000000000000000, 0.000000000000000 ) );
#230 = SURFACE_STYLE_FILL_AREA( #285 );
#231 = ORIENTED_EDGE( '', *, *, #279, .F. );
#232 = VERTEX_POINT( '', #286 );
#233 = CARTESIAN_POINT( '', ( -7.39714321818985E-016, -1.16862130378829E-015, 10.5257879609886 ) );
#234 = DIRECTION( '', ( 2.81217508625479E-017, 1.11022302462516E-016, -1.00000000000000 ) );
#235 = DIRECTION( '', ( -1.00000000000000, -9.20381011404100E-033, -2.81217508625479E-017 ) );
#236 = SURFACE_STYLE_FILL_AREA( #287 );
#237 = ORIENTED_EDGE( '', *, *, #274, .F. );
#238 = ORIENTED_EDGE( '', *, *, #283, .T. );
#239 = CARTESIAN_POINT( '', ( 7.35646653897199E-032, 1.20144183737250E-015, 7.79978302443181 ) );
#240 = DIRECTION( '', ( -0.000000000000000, 0.000000000000000, -1.00000000000000 ) );
#241 = DIRECTION( '', ( -1.00000000000000, 0.000000000000000, 0.000000000000000 ) );
#242 = SURFACE_STYLE_FILL_AREA( #288 );
#243 = ORIENTED_EDGE( '', *, *, #284, .F. );
#244 = ORIENTED_EDGE( '', *, *, #270, .T. );
#245 = CARTESIAN_POINT( '', ( 9.62964972193618E-032, 8.67361737988404E-016, 7.19978302443225 ) );
#246 = DIRECTION( '', ( 0.000000000000000, 0.000000000000000, 1.00000000000000 ) );
#247 = DIRECTION( '', ( 1.00000000000000, 0.000000000000000, 0.000000000000000 ) );
#248 = SURFACE_STYLE_FILL_AREA( #289 );
#249 = ORIENTED_EDGE( '', *, *, #281, .F. );
#250 = ORIENTED_EDGE( '', *, *, #273, .T. );
#251 = CARTESIAN_POINT( '', ( 4.16437207343473E-016, 6.80116032459969, 12.5997830244323 ) );
#252 = DIRECTION( '', ( 0.000000000000000, 0.000000000000000, -1.00000000000000 ) );
#253 = DIRECTION( '', ( -1.00000000000000, 0.000000000000000, 0.000000000000000 ) );
#254 = SURFACE_STYLE_FILL_AREA( #290 );
#255 = ORIENTED_EDGE( '', *, *, #267, .T. );
#256 = ORIENTED_EDGE( '', *, *, #277, .T. );
#257 = CARTESIAN_POINT( '', ( 3.36766747301154E-016, 5.50000000000000, -0.000216975567747177 ) );
#258 = DIRECTION( '', ( 0.000000000000000, 0.000000000000000, 1.00000000000000 ) );
#259 = DIRECTION( '', ( 1.00000000000000, 0.000000000000000, 0.000000000000000 ) );
#260 = SURFACE_STYLE_FILL_AREA( #291 );
#261 = ORIENTED_EDGE( '', *, *, #268, .T. );
#262 = ORIENTED_EDGE( '', *, *, #271, .F. );
#263 = CARTESIAN_POINT( '', ( 7.35646653897199E-032, 1.20144183737250E-015, 9.81084112149533 ) );
#264 = DIRECTION( '', ( -0.000000000000000, -0.000000000000000, -1.00000000000000 ) );
#265 = DIRECTION( '', ( 1.00000000000000, 0.000000000000000, 0.000000000000000 ) );
#266 = FILL_AREA_STYLE( '', ( #292 ) );
#267 = EDGE_CURVE( '', #293, #293, #294, .F. );
#268 = EDGE_CURVE( '', #295, #295, #296, .T. );
#269 = FILL_AREA_STYLE( '', ( #297 ) );
#270 = EDGE_CURVE( '', #298, #298, #299, .T. );
#271 = EDGE_CURVE( '', #300, #300, #301, .T. );
#272 = FILL_AREA_STYLE( '', ( #302 ) );
#273 = EDGE_CURVE( '', #303, #303, #304, .T. );
#274 = EDGE_CURVE( '', #305, #305, #306, .T. );
#275 = FILL_AREA_STYLE( '', ( #307 ) );
#276 = EDGE_CURVE( '', #308, #308, #309, .F. );
#277 = EDGE_CURVE( '', #310, #310, #311, .T. );
#278 = FILL_AREA_STYLE( '', ( #312 ) );
#279 = EDGE_CURVE( '', #313, #313, #314, .T. );
#280 = FILL_AREA_STYLE( '', ( #315 ) );
#281 = EDGE_CURVE( '', #316, #316, #317, .T. );
#282 = FILL_AREA_STYLE( '', ( #318 ) );
#283 = EDGE_CURVE( '', #319, #319, #320, .T. );
#284 = EDGE_CURVE( '', #321, #321, #322, .T. );
#285 = FILL_AREA_STYLE( '', ( #323 ) );
#286 = CARTESIAN_POINT( '', ( -7.67104768334499E-016, -1.27675647831893E-015, 11.4997830244322 ) );
#287 = FILL_AREA_STYLE( '', ( #324 ) );
#288 = FILL_AREA_STYLE( '', ( #325 ) );
#289 = FILL_AREA_STYLE( '', ( #326 ) );
#290 = FILL_AREA_STYLE( '', ( #327 ) );
#291 = FILL_AREA_STYLE( '', ( #328 ) );
#292 = FILL_AREA_STYLE_COLOUR( '', #329 );
#293 = VERTEX_POINT( '', #330 );
#294 = CIRCLE( '', #331, 5.00000000000000 );
#295 = VERTEX_POINT( '', #332 );
#296 = CIRCLE( '', #333, 5.50000000000000 );
#297 = FILL_AREA_STYLE_COLOUR( '', #334 );
#298 = VERTEX_POINT( '', #335 );
#299 = CIRCLE( '', #336, 7.30000000000000 );
#300 = VERTEX_POINT( '', #337 );
#301 = CIRCLE( '', #338, 5.50000000000000 );
#302 = FILL_AREA_STYLE_COLOUR( '', #339 );
#303 = VERTEX_POINT( '', #340 );
#304 = CIRCLE( '', #341, 6.80116032459969 );
#305 = VERTEX_POINT( '', #342 );
#306 = CIRCLE( '', #343, 7.00000000000000 );
#307 = FILL_AREA_STYLE_COLOUR( '', #344 );
#308 = VERTEX_POINT( '', #345 );
#309 = CIRCLE( '', #346, 1.62100000000000 );
#310 = VERTEX_POINT( '', #347 );
#311 = CIRCLE( '', #348, 2.12100000000000 );
#312 = FILL_AREA_STYLE_COLOUR( '', #349 );
#313 = VERTEX_POINT( '', #350 );
#314 = CIRCLE( '', #351, 1.62100000000000 );
#315 = FILL_AREA_STYLE_COLOUR( '', #352 );
#316 = VERTEX_POINT( '', #353 );
#317 = CIRCLE( '', #354, 5.00000000000000 );
#318 = FILL_AREA_STYLE_COLOUR( '', #355 );
#319 = VERTEX_POINT( '', #356 );
#320 = CIRCLE( '', #357, 7.50000000000000 );
#321 = VERTEX_POINT( '', #358 );
#322 = CIRCLE( '', #359, 7.50000000000000 );
#323 = FILL_AREA_STYLE_COLOUR( '', #360 );
#324 = FILL_AREA_STYLE_COLOUR( '', #361 );
#325 = FILL_AREA_STYLE_COLOUR( '', #362 );
#326 = FILL_AREA_STYLE_COLOUR( '', #363 );
#327 = FILL_AREA_STYLE_COLOUR( '', #364 );
#328 = FILL_AREA_STYLE_COLOUR( '', #365 );
#329 = COLOUR_RGB( '', 0.200000002980232, 0.200000002980232, 0.200000002980232 );
#330 = CARTESIAN_POINT( '', ( 5.00000000000000, 1.20144183737250E-015, -0.000216975567747177 ) );
#331 = AXIS2_PLACEMENT_3D( '', #366, #367, #368 );
#332 = CARTESIAN_POINT( '', ( 5.50000000000000, 1.20144183737250E-015, 0.499783024432253 ) );
#333 = AXIS2_PLACEMENT_3D( '', #369, #370, #371 );
#334 = COLOUR_RGB( '', 0.200000002980232, 0.200000002980232, 0.200000002980232 );
#335 = CARTESIAN_POINT( '', ( 7.30000000000000, 1.20144183737250E-015, 6.99978302443225 ) );
#336 = AXIS2_PLACEMENT_3D( '', #372, #373, #374 );
#337 = CARTESIAN_POINT( '', ( 5.50000000000000, 1.20144183737250E-015, 6.99978302443225 ) );
#338 = AXIS2_PLACEMENT_3D( '', #375, #376, #377 );
#339 = COLOUR_RGB( '', 0.200000002980232, 0.200000002980232, 0.200000002980232 );
#340 = CARTESIAN_POINT( '', ( 6.80116032459969, 1.20144183737250E-015, 12.5997830244323 ) );
#341 = AXIS2_PLACEMENT_3D( '', #378, #379, #380 );
#342 = CARTESIAN_POINT( '', ( 7.00000000000000, 1.20144183737250E-015, 12.4212954275221 ) );
#343 = AXIS2_PLACEMENT_3D( '', #381, #382, #383 );
#344 = COLOUR_RGB( '', 0.666666686534882, 0.400000005960464, 0.133333340287209 );
#345 = CARTESIAN_POINT( '', ( -1.62100000000000, -5.55111512312579E-017, 0.499783024432252 ) );
#346 = AXIS2_PLACEMENT_3D( '', #384, #385, #386 );
#347 = CARTESIAN_POINT( '', ( -2.12100000000000, -1.22269481163847E-031, -0.000216975567748315 ) );
#348 = AXIS2_PLACEMENT_3D( '', #387, #388, #389 );
#349 = COLOUR_RGB( '', 0.752941191196442, 0.752941191196442, 0.752941191196442 );
#350 = CARTESIAN_POINT( '', ( -1.62100000000000, -1.16862130378829E-015, 10.5257879609886 ) );
#351 = AXIS2_PLACEMENT_3D( '', #390, #391, #392 );
#352 = COLOUR_RGB( '', 0.200000002980232, 0.200000002980232, 0.200000002980232 );
#353 = CARTESIAN_POINT( '', ( 5.00000000000000, 1.20144183737250E-015, 12.5997830244323 ) );
#354 = AXIS2_PLACEMENT_3D( '', #393, #394, #395 );
#355 = COLOUR_RGB( '', 0.200000002980232, 0.200000002980232, 0.200000002980232 );
#356 = CARTESIAN_POINT( '', ( 7.50000000000000, 1.20144183737250E-015, 7.79978302443181 ) );
#357 = AXIS2_PLACEMENT_3D( '', #396, #397, #398 );
#358 = CARTESIAN_POINT( '', ( 7.50000000000000, 1.20144183737250E-015, 7.19978302443225 ) );
#359 = AXIS2_PLACEMENT_3D( '', #399, #400, #401 );
#360 = COLOUR_RGB( '', 0.666666686534882, 0.400000005960464, 0.133333340287209 );
#361 = COLOUR_RGB( '', 0.200000002980232, 0.200000002980232, 0.200000002980232 );
#362 = COLOUR_RGB( '', 0.200000002980232, 0.200000002980232, 0.200000002980232 );
#363 = COLOUR_RGB( '', 0.200000002980232, 0.200000002980232, 0.200000002980232 );
#364 = COLOUR_RGB( '', 0.752941191196442, 0.752941191196442, 0.752941191196442 );
#365 = COLOUR_RGB( '', 0.200000002980232, 0.200000002980232, 0.200000002980232 );
#366 = CARTESIAN_POINT( '', ( 7.35646653897199E-032, 1.20144183737250E-015, -0.000216975567747177 ) );
#367 = DIRECTION( '', ( 0.000000000000000, 0.000000000000000, 1.00000000000000 ) );
#368 = DIRECTION( '', ( 1.00000000000000, 0.000000000000000, 0.000000000000000 ) );
#369 = CARTESIAN_POINT( '', ( 7.35646653897199E-032, 1.20144183737250E-015, 0.499783024432253 ) );
#370 = DIRECTION( '', ( 0.000000000000000, 0.000000000000000, 1.00000000000000 ) );
#371 = DIRECTION( '', ( 1.00000000000000, 0.000000000000000, 0.000000000000000 ) );
#372 = CARTESIAN_POINT( '', ( 7.35646653897199E-032, 1.20144183737250E-015, 6.99978302443225 ) );
#373 = DIRECTION( '', ( 0.000000000000000, 0.000000000000000, 1.00000000000000 ) );
#374 = DIRECTION( '', ( 1.00000000000000, 0.000000000000000, 0.000000000000000 ) );
#375 = CARTESIAN_POINT( '', ( 7.35646653897199E-032, 1.20144183737250E-015, 6.99978302443225 ) );
#376 = DIRECTION( '', ( 0.000000000000000, 0.000000000000000, 1.00000000000000 ) );
#377 = DIRECTION( '', ( 1.00000000000000, 0.000000000000000, 0.000000000000000 ) );
#378 = CARTESIAN_POINT( '', ( 7.35646653897199E-032, 1.20144183737250E-015, 12.5997830244323 ) );
#379 = DIRECTION( '', ( 0.000000000000000, 0.000000000000000, 1.00000000000000 ) );
#380 = DIRECTION( '', ( 1.00000000000000, 0.000000000000000, 0.000000000000000 ) );
#381 = CARTESIAN_POINT( '', ( 7.35646653897199E-032, 1.20144183737250E-015, 12.4212954275221 ) );
#382 = DIRECTION( '', ( 0.000000000000000, 0.000000000000000, 1.00000000000000 ) );
#383 = DIRECTION( '', ( 1.00000000000000, 0.000000000000000, 0.000000000000000 ) );
#384 = CARTESIAN_POINT( '', ( -4.57765508846472E-016, -5.55111512312579E-017, 0.499783024432252 ) );
#385 = DIRECTION( '', ( -2.81217508625481E-017, -1.11022302462516E-016, 1.00000000000000 ) );
#386 = DIRECTION( '', ( -1.00000000000000, -9.20381011404099E-033, -2.81217508625481E-017 ) );
#387 = CARTESIAN_POINT( '', ( -4.43704633415198E-016, -7.66048564748758E-032, -0.000216975567748491 ) );
#388 = DIRECTION( '', ( -2.81217508625479E-017, -1.11022302462516E-016, 1.00000000000000 ) );
#389 = DIRECTION( '', ( -1.00000000000000, -9.20381011404100E-033, -2.81217508625479E-017 ) );
#390 = CARTESIAN_POINT( '', ( -7.39714321818985E-016, -1.16862130378829E-015, 10.5257879609886 ) );
#391 = DIRECTION( '', ( -2.81217508625479E-017, -1.11022302462516E-016, 1.00000000000000 ) );
#392 = DIRECTION( '', ( -1.00000000000000, -9.20381011404100E-033, -2.81217508625479E-017 ) );
#393 = CARTESIAN_POINT( '', ( 7.35646653897199E-032, 1.20144183737250E-015, 12.5997830244323 ) );
#394 = DIRECTION( '', ( 0.000000000000000, 0.000000000000000, 1.00000000000000 ) );
#395 = DIRECTION( '', ( 1.00000000000000, 0.000000000000000, 0.000000000000000 ) );
#396 = CARTESIAN_POINT( '', ( 7.35646653897199E-032, 1.20144183737250E-015, 7.79978302443181 ) );
#397 = DIRECTION( '', ( 0.000000000000000, 0.000000000000000, 1.00000000000000 ) );
#398 = DIRECTION( '', ( 1.00000000000000, 0.000000000000000, 0.000000000000000 ) );
#399 = CARTESIAN_POINT( '', ( 7.35646653897199E-032, 1.20144183737250E-015, 7.19978302443225 ) );
#400 = DIRECTION( '', ( 0.000000000000000, 0.000000000000000, 1.00000000000000 ) );
#401 = DIRECTION( '', ( 1.00000000000000, 0.000000000000000, 0.000000000000000 ) );
ENDSEC;
END-ISO-10303-21;
