ISO-10303-21;
HEADER;
FILE_DESCRIPTION( ( 'Unknown' ), '1' );
FILE_NAME( 'E:/98-Dis_3D_per_controllo/ZB/6339000_ZB26_M04/6339000_ZB26_M04.stp', 'Unknown', ( 'Unknown' ), ( 'Unknown' ), 'PSStep 11.0', 'Unknown', '  ' );
FILE_SCHEMA( ( 'AUTOMOTIVE_DESIGN { 1 0 10303 214 1 1 1 1 }' ) );
ENDSEC;
DATA;
#1 = MECHANICAL_DESIGN_GEOMETRIC_PRESENTATION_REPRESENTATION( ' ', ( #10, #11, #12, #13, #14, #15, #16, #17, #18, #19, #20, #21, #22 ), #6 );
#2 = PRODUCT_DEFINITION_CONTEXT( '', #23, 'design' );
#3 = APPLICATION_PROTOCOL_DEFINITION( 'INTERNATIONAL STANDARD', 'automotive_design', 2001, #23 );
#4 = PRODUCT_CATEGORY_RELATIONSHIP( 'NONE', 'NONE', #24, #25 );
#5 = SHAPE_DEFINITION_REPRESENTATION( #26, #27 );
#6 =  ( GEOMETRIC_REPRESENTATION_CONTEXT( 3 )GLOBAL_UNCERTAINTY_ASSIGNED_CONTEXT( ( #30 ) )GLOBAL_UNIT_ASSIGNED_CONTEXT( ( #32, #33, #34 ) )REPRESENTATION_CONTEXT( 'NONE', 'WORKSPACE' ) );
#10 = STYLED_ITEM( '', ( #36 ), #37 );
#11 = STYLED_ITEM( '', ( #38 ), #39 );
#12 = STYLED_ITEM( '', ( #40 ), #41 );
#13 = STYLED_ITEM( '', ( #42 ), #43 );
#14 = STYLED_ITEM( '', ( #44 ), #45 );
#15 = STYLED_ITEM( '', ( #46 ), #47 );
#16 = STYLED_ITEM( '', ( #48 ), #49 );
#17 = STYLED_ITEM( '', ( #50 ), #51 );
#18 = STYLED_ITEM( '', ( #52 ), #53 );
#19 = STYLED_ITEM( '', ( #54 ), #55 );
#20 = STYLED_ITEM( '', ( #56 ), #57 );
#21 = STYLED_ITEM( '', ( #58 ), #59 );
#22 = STYLED_ITEM( '', ( #60 ), #61 );
#23 = APPLICATION_CONTEXT( 'core data for automotive mechanical design processes' );
#24 = PRODUCT_CATEGORY( 'part', 'NONE' );
#25 = PRODUCT_RELATED_PRODUCT_CATEGORY( 'detail', ' ', ( #62 ) );
#26 = PRODUCT_DEFINITION_SHAPE( 'NONE', 'NONE', #63 );
#27 = ADVANCED_BREP_SHAPE_REPRESENTATION( '6339000', ( #64, #65 ), #6 );
#30 = UNCERTAINTY_MEASURE_WITH_UNIT( LENGTH_MEASURE( 0.00100000000000000 ), #32, '', '' );
#32 =  ( CONVERSION_BASED_UNIT( 'MILLIMETRE', #68 )LENGTH_UNIT(  )NAMED_UNIT( #71 ) );
#33 =  ( NAMED_UNIT( #73 )PLANE_ANGLE_UNIT(  )SI_UNIT( $, .RADIAN. ) );
#34 =  ( NAMED_UNIT( #73 )SI_UNIT( $, .STERADIAN. )SOLID_ANGLE_UNIT(  ) );
#36 = PRESENTATION_STYLE_ASSIGNMENT( ( #79 ) );
#37 = ADVANCED_FACE( '', ( #80, #81 ), #82, .F. );
#38 = PRESENTATION_STYLE_ASSIGNMENT( ( #83 ) );
#39 = ADVANCED_FACE( '', ( #84, #85 ), #86, .F. );
#40 = PRESENTATION_STYLE_ASSIGNMENT( ( #87 ) );
#41 = ADVANCED_FACE( '', ( #88, #89 ), #90, .F. );
#42 = PRESENTATION_STYLE_ASSIGNMENT( ( #91 ) );
#43 = ADVANCED_FACE( '', ( #92, #93 ), #94, .T. );
#44 = PRESENTATION_STYLE_ASSIGNMENT( ( #95 ) );
#45 = ADVANCED_FACE( '', ( #96, #97 ), #98, .F. );
#46 = PRESENTATION_STYLE_ASSIGNMENT( ( #99 ) );
#47 = ADVANCED_FACE( '', ( #100, #101 ), #102, .F. );
#48 = PRESENTATION_STYLE_ASSIGNMENT( ( #103 ) );
#49 = ADVANCED_FACE( '', ( #104 ), #105, .T. );
#50 = PRESENTATION_STYLE_ASSIGNMENT( ( #106 ) );
#51 = ADVANCED_FACE( '', ( #107, #108 ), #109, .F. );
#52 = PRESENTATION_STYLE_ASSIGNMENT( ( #110 ) );
#53 = ADVANCED_FACE( '', ( #111, #112 ), #113, .T. );
#54 = PRESENTATION_STYLE_ASSIGNMENT( ( #114 ) );
#55 = ADVANCED_FACE( '', ( #115, #116 ), #117, .T. );
#56 = PRESENTATION_STYLE_ASSIGNMENT( ( #118 ) );
#57 = ADVANCED_FACE( '', ( #119, #120 ), #121, .T. );
#58 = PRESENTATION_STYLE_ASSIGNMENT( ( #122 ) );
#59 = ADVANCED_FACE( '', ( #123, #124 ), #125, .F. );
#60 = PRESENTATION_STYLE_ASSIGNMENT( ( #126 ) );
#61 = ADVANCED_FACE( '', ( #127, #128 ), #129, .T. );
#62 = PRODUCT( '6339000', '6339000', 'PART-6339000-DESC', ( #130 ) );
#63 = PRODUCT_DEFINITION( 'NONE', 'NONE', #131, #2 );
#64 = MANIFOLD_SOLID_BREP( '6339000', #132 );
#65 = AXIS2_PLACEMENT_3D( '', #133, #134, #135 );
#68 = LENGTH_MEASURE_WITH_UNIT( LENGTH_MEASURE( 1.00000000000000 ), #136 );
#71 = DIMENSIONAL_EXPONENTS( 1.00000000000000, 0.000000000000000, 0.000000000000000, 0.000000000000000, 0.000000000000000, 0.000000000000000, 0.000000000000000 );
#73 = DIMENSIONAL_EXPONENTS( 0.000000000000000, 0.000000000000000, 0.000000000000000, 0.000000000000000, 0.000000000000000, 0.000000000000000, 0.000000000000000 );
#79 = SURFACE_STYLE_USAGE( .BOTH., #137 );
#80 = FACE_OUTER_BOUND( '', #138, .T. );
#81 = FACE_OUTER_BOUND( '', #139, .T. );
#82 = CYLINDRICAL_SURFACE( '', #140, 1.62100000000000 );
#83 = SURFACE_STYLE_USAGE( .BOTH., #141 );
#84 = FACE_OUTER_BOUND( '', #142, .T. );
#85 = FACE_BOUND( '', #143, .T. );
#86 = PLANE( '', #144 );
#87 = SURFACE_STYLE_USAGE( .BOTH., #145 );
#88 = FACE_OUTER_BOUND( '', #146, .T. );
#89 = FACE_BOUND( '', #147, .T. );
#90 = CONICAL_SURFACE( '', #148, 1.62100000000000, 1.02974425867665 );
#91 = SURFACE_STYLE_USAGE( .BOTH., #149 );
#92 = FACE_OUTER_BOUND( '', #150, .T. );
#93 = FACE_OUTER_BOUND( '', #151, .T. );
#94 = TOROIDAL_SURFACE( '', #152, 12.8007924589371, 0.200000000000000 );
#95 = SURFACE_STYLE_USAGE( .BOTH., #153 );
#96 = FACE_OUTER_BOUND( '', #154, .T. );
#97 = FACE_OUTER_BOUND( '', #155, .T. );
#98 = TOROIDAL_SURFACE( '', #156, 8.50000000000000, 0.500000000000000 );
#99 = SURFACE_STYLE_USAGE( .BOTH., #157 );
#100 = FACE_OUTER_BOUND( '', #158, .T. );
#101 = FACE_BOUND( '', #159, .T. );
#102 = PLANE( '', #160 );
#103 = SURFACE_STYLE_USAGE( .BOTH., #161 );
#104 = FACE_OUTER_BOUND( '', #162, .T. );
#105 = SPHERICAL_SURFACE( '', #163, 20.7604166666667 );
#106 = SURFACE_STYLE_USAGE( .BOTH., #164 );
#107 = FACE_BOUND( '', #165, .T. );
#108 = FACE_OUTER_BOUND( '', #166, .T. );
#109 = PLANE( '', #167 );
#110 = SURFACE_STYLE_USAGE( .BOTH., #168 );
#111 = FACE_OUTER_BOUND( '', #169, .T. );
#112 = FACE_OUTER_BOUND( '', #170, .T. );
#113 = TOROIDAL_SURFACE( '', #171, 7.00000000000000, 1.00000000000000 );
#114 = SURFACE_STYLE_USAGE( .BOTH., #172 );
#115 = FACE_OUTER_BOUND( '', #173, .T. );
#116 = FACE_OUTER_BOUND( '', #174, .T. );
#117 = TOROIDAL_SURFACE( '', #175, 12.3007924589371, 0.200000000000000 );
#118 = SURFACE_STYLE_USAGE( .BOTH., #176 );
#119 = FACE_OUTER_BOUND( '', #177, .T. );
#120 = FACE_OUTER_BOUND( '', #178, .T. );
#121 = CYLINDRICAL_SURFACE( '', #179, 8.00000000000000 );
#122 = SURFACE_STYLE_USAGE( .BOTH., #180 );
#123 = FACE_BOUND( '', #181, .T. );
#124 = FACE_OUTER_BOUND( '', #182, .T. );
#125 = CONICAL_SURFACE( '', #183, 2.12100000000000, 0.785398163397448 );
#126 = SURFACE_STYLE_USAGE( .BOTH., #184 );
#127 = FACE_BOUND( '', #185, .T. );
#128 = FACE_OUTER_BOUND( '', #186, .T. );
#129 = CONICAL_SURFACE( '', #187, 13.0000000000000, 0.0890495826344968 );
#130 = PRODUCT_CONTEXT( '', #23, 'mechanical' );
#131 = PRODUCT_DEFINITION_FORMATION_WITH_SPECIFIED_SOURCE( ' ', 'NONE', #62, .NOT_KNOWN. );
#132 = CLOSED_SHELL( '', ( #47, #41, #59, #37, #49, #53, #57, #45, #39, #43, #61, #55, #51 ) );
#133 = CARTESIAN_POINT( '', ( 0.000000000000000, 0.000000000000000, 0.000000000000000 ) );
#134 = DIRECTION( '', ( 0.000000000000000, 0.000000000000000, 1.00000000000000 ) );
#135 = DIRECTION( '', ( 1.00000000000000, 0.000000000000000, 0.000000000000000 ) );
#136 =  ( LENGTH_UNIT(  )NAMED_UNIT( #71 )SI_UNIT( .MILLI., .METRE. ) );
#137 = SURFACE_SIDE_STYLE( '', ( #189 ) );
#138 = EDGE_LOOP( '', ( #190 ) );
#139 = EDGE_LOOP( '', ( #191 ) );
#140 = AXIS2_PLACEMENT_3D( '', #192, #193, #194 );
#141 = SURFACE_SIDE_STYLE( '', ( #195 ) );
#142 = EDGE_LOOP( '', ( #196 ) );
#143 = EDGE_LOOP( '', ( #197 ) );
#144 = AXIS2_PLACEMENT_3D( '', #198, #199, #200 );
#145 = SURFACE_SIDE_STYLE( '', ( #201 ) );
#146 = EDGE_LOOP( '', ( #202 ) );
#147 = VERTEX_LOOP( '', #203 );
#148 = AXIS2_PLACEMENT_3D( '', #204, #205, #206 );
#149 = SURFACE_SIDE_STYLE( '', ( #207 ) );
#150 = EDGE_LOOP( '', ( #208 ) );
#151 = EDGE_LOOP( '', ( #209 ) );
#152 = AXIS2_PLACEMENT_3D( '', #210, #211, #212 );
#153 = SURFACE_SIDE_STYLE( '', ( #213 ) );
#154 = EDGE_LOOP( '', ( #214 ) );
#155 = EDGE_LOOP( '', ( #215 ) );
#156 = AXIS2_PLACEMENT_3D( '', #216, #217, #218 );
#157 = SURFACE_SIDE_STYLE( '', ( #219 ) );
#158 = EDGE_LOOP( '', ( #220 ) );
#159 = EDGE_LOOP( '', ( #221 ) );
#160 = AXIS2_PLACEMENT_3D( '', #222, #223, #224 );
#161 = SURFACE_SIDE_STYLE( '', ( #225 ) );
#162 = EDGE_LOOP( '', ( #226 ) );
#163 = AXIS2_PLACEMENT_3D( '', #227, #228, #229 );
#164 = SURFACE_SIDE_STYLE( '', ( #230 ) );
#165 = EDGE_LOOP( '', ( #231 ) );
#166 = EDGE_LOOP( '', ( #232 ) );
#167 = AXIS2_PLACEMENT_3D( '', #233, #234, #235 );
#168 = SURFACE_SIDE_STYLE( '', ( #236 ) );
#169 = EDGE_LOOP( '', ( #237 ) );
#170 = EDGE_LOOP( '', ( #238 ) );
#171 = AXIS2_PLACEMENT_3D( '', #239, #240, #241 );
#172 = SURFACE_SIDE_STYLE( '', ( #242 ) );
#173 = EDGE_LOOP( '', ( #243 ) );
#174 = EDGE_LOOP( '', ( #244 ) );
#175 = AXIS2_PLACEMENT_3D( '', #245, #246, #247 );
#176 = SURFACE_SIDE_STYLE( '', ( #248 ) );
#177 = EDGE_LOOP( '', ( #249 ) );
#178 = EDGE_LOOP( '', ( #250 ) );
#179 = AXIS2_PLACEMENT_3D( '', #251, #252, #253 );
#180 = SURFACE_SIDE_STYLE( '', ( #254 ) );
#181 = EDGE_LOOP( '', ( #255 ) );
#182 = EDGE_LOOP( '', ( #256 ) );
#183 = AXIS2_PLACEMENT_3D( '', #257, #258, #259 );
#184 = SURFACE_SIDE_STYLE( '', ( #260 ) );
#185 = EDGE_LOOP( '', ( #261 ) );
#186 = EDGE_LOOP( '', ( #262 ) );
#187 = AXIS2_PLACEMENT_3D( '', #263, #264, #265 );
#189 = SURFACE_STYLE_FILL_AREA( #266 );
#190 = ORIENTED_EDGE( '', *, *, #267, .T. );
#191 = ORIENTED_EDGE( '', *, *, #268, .T. );
#192 = CARTESIAN_POINT( '', ( 0.000000000000000, 1.08420217248550E-016, 3.79627969684937E-015 ) );
#193 = DIRECTION( '', ( -0.000000000000000, 0.000000000000000, -1.00000000000000 ) );
#194 = DIRECTION( '', ( 0.000000000000000, 1.00000000000000, 0.000000000000000 ) );
#195 = SURFACE_STYLE_FILL_AREA( #269 );
#196 = ORIENTED_EDGE( '', *, *, #270, .F. );
#197 = ORIENTED_EDGE( '', *, *, #271, .T. );
#198 = CARTESIAN_POINT( '', ( 5.20457700374511E-016, 8.50000000000000, 6.00000000000000 ) );
#199 = DIRECTION( '', ( 0.000000000000000, 0.000000000000000, 1.00000000000000 ) );
#200 = DIRECTION( '', ( 1.00000000000000, 0.000000000000000, 0.000000000000000 ) );
#201 = SURFACE_STYLE_FILL_AREA( #272 );
#202 = ORIENTED_EDGE( '', *, *, #268, .F. );
#203 = VERTEX_POINT( '', #273 );
#204 = CARTESIAN_POINT( '', ( 0.000000000000000, 1.08420217248550E-016, 9.52600493655633 ) );
#205 = DIRECTION( '', ( 0.000000000000000, -0.000000000000000, -1.00000000000000 ) );
#206 = DIRECTION( '', ( 0.000000000000000, -1.00000000000000, 0.000000000000000 ) );
#207 = SURFACE_STYLE_FILL_AREA( #274 );
#208 = ORIENTED_EDGE( '', *, *, #275, .F. );
#209 = ORIENTED_EDGE( '', *, *, #270, .T. );
#210 = CARTESIAN_POINT( '', ( 0.000000000000000, 0.000000000000000, 6.20000000000000 ) );
#211 = DIRECTION( '', ( 0.000000000000000, 0.000000000000000, 1.00000000000000 ) );
#212 = DIRECTION( '', ( 1.00000000000000, 0.000000000000000, 0.000000000000000 ) );
#213 = SURFACE_STYLE_FILL_AREA( #276 );
#214 = ORIENTED_EDGE( '', *, *, #271, .F. );
#215 = ORIENTED_EDGE( '', *, *, #277, .T. );
#216 = CARTESIAN_POINT( '', ( 0.000000000000000, 0.000000000000000, 5.50000000000000 ) );
#217 = DIRECTION( '', ( 0.000000000000000, 0.000000000000000, 1.00000000000000 ) );
#218 = DIRECTION( '', ( 1.00000000000000, 0.000000000000000, 0.000000000000000 ) );
#219 = SURFACE_STYLE_FILL_AREA( #278 );
#220 = ORIENTED_EDGE( '', *, *, #279, .F. );
#221 = ORIENTED_EDGE( '', *, *, #280, .T. );
#222 = CARTESIAN_POINT( '', ( 2.44921270764476E-016, 4.00000000000000, 4.01058580876829E-015 ) );
#223 = DIRECTION( '', ( 0.000000000000000, 0.000000000000000, 1.00000000000000 ) );
#224 = DIRECTION( '', ( 1.00000000000000, 0.000000000000000, 0.000000000000000 ) );
#225 = SURFACE_STYLE_FILL_AREA( #281 );
#226 = ORIENTED_EDGE( '', *, *, #282, .T. );
#227 = CARTESIAN_POINT( '', ( 5.31088347701510E-032, 8.67361737988404E-016, -5.76041666666667 ) );
#228 = DIRECTION( '', ( 0.000000000000000, 0.000000000000000, 1.00000000000000 ) );
#229 = DIRECTION( '', ( 6.12303176911189E-017, 1.00000000000000, 0.000000000000000 ) );
#230 = SURFACE_STYLE_FILL_AREA( #283 );
#231 = ORIENTED_EDGE( '', *, *, #282, .F. );
#232 = ORIENTED_EDGE( '', *, *, #284, .T. );
#233 = CARTESIAN_POINT( '', ( 7.53181430113238E-016, 12.3007924589371, 12.0000000000000 ) );
#234 = DIRECTION( '', ( 0.000000000000000, 0.000000000000000, -1.00000000000000 ) );
#235 = DIRECTION( '', ( -1.00000000000000, 0.000000000000000, 0.000000000000000 ) );
#236 = SURFACE_STYLE_FILL_AREA( #285 );
#237 = ORIENTED_EDGE( '', *, *, #286, .F. );
#238 = ORIENTED_EDGE( '', *, *, #279, .T. );
#239 = CARTESIAN_POINT( '', ( 0.000000000000000, 0.000000000000000, 1.00000000000000 ) );
#240 = DIRECTION( '', ( 0.000000000000000, 0.000000000000000, 1.00000000000000 ) );
#241 = DIRECTION( '', ( 1.00000000000000, 0.000000000000000, 0.000000000000000 ) );
#242 = SURFACE_STYLE_FILL_AREA( #287 );
#243 = ORIENTED_EDGE( '', *, *, #284, .F. );
#244 = ORIENTED_EDGE( '', *, *, #288, .T. );
#245 = CARTESIAN_POINT( '', ( 0.000000000000000, 0.000000000000000, 11.8000000000000 ) );
#246 = DIRECTION( '', ( 0.000000000000000, 0.000000000000000, 1.00000000000000 ) );
#247 = DIRECTION( '', ( 1.00000000000000, 0.000000000000000, 0.000000000000000 ) );
#248 = SURFACE_STYLE_FILL_AREA( #289 );
#249 = ORIENTED_EDGE( '', *, *, #277, .F. );
#250 = ORIENTED_EDGE( '', *, *, #286, .T. );
#251 = CARTESIAN_POINT( '', ( -1.43568159340735E-043, -2.34472341079424E-027, 14.0000000000000 ) );
#252 = DIRECTION( '', ( -0.000000000000000, -0.000000000000000, -1.00000000000000 ) );
#253 = DIRECTION( '', ( 1.00000000000000, 0.000000000000000, 0.000000000000000 ) );
#254 = SURFACE_STYLE_FILL_AREA( #290 );
#255 = ORIENTED_EDGE( '', *, *, #267, .F. );
#256 = ORIENTED_EDGE( '', *, *, #280, .F. );
#257 = CARTESIAN_POINT( '', ( 0.000000000000000, 1.08420217248550E-016, 3.79627969684937E-015 ) );
#258 = DIRECTION( '', ( -0.000000000000000, 0.000000000000000, -1.00000000000000 ) );
#259 = DIRECTION( '', ( -1.00000000000000, 0.000000000000000, 0.000000000000000 ) );
#260 = SURFACE_STYLE_FILL_AREA( #291 );
#261 = ORIENTED_EDGE( '', *, *, #288, .F. );
#262 = ORIENTED_EDGE( '', *, *, #275, .T. );
#263 = CARTESIAN_POINT( '', ( -1.43568159340735E-043, -2.34472341079424E-027, 6.21778638759486 ) );
#264 = DIRECTION( '', ( -0.000000000000000, 0.000000000000000, -1.00000000000000 ) );
#265 = DIRECTION( '', ( -1.00000000000000, 0.000000000000000, 0.000000000000000 ) );
#266 = FILL_AREA_STYLE( '', ( #292 ) );
#267 = EDGE_CURVE( '', #293, #293, #294, .F. );
#268 = EDGE_CURVE( '', #295, #295, #296, .T. );
#269 = FILL_AREA_STYLE( '', ( #297 ) );
#270 = EDGE_CURVE( '', #298, #298, #299, .T. );
#271 = EDGE_CURVE( '', #300, #300, #301, .T. );
#272 = FILL_AREA_STYLE( '', ( #302 ) );
#273 = CARTESIAN_POINT( '', ( 0.000000000000000, 1.08420217248550E-016, 10.5000000000000 ) );
#274 = FILL_AREA_STYLE( '', ( #303 ) );
#275 = EDGE_CURVE( '', #304, #304, #305, .T. );
#276 = FILL_AREA_STYLE( '', ( #306 ) );
#277 = EDGE_CURVE( '', #307, #307, #308, .T. );
#278 = FILL_AREA_STYLE( '', ( #309 ) );
#279 = EDGE_CURVE( '', #310, #310, #311, .T. );
#280 = EDGE_CURVE( '', #312, #312, #313, .T. );
#281 = FILL_AREA_STYLE( '', ( #314 ) );
#282 = EDGE_CURVE( '', #315, #315, #316, .T. );
#283 = FILL_AREA_STYLE( '', ( #317 ) );
#284 = EDGE_CURVE( '', #318, #318, #319, .T. );
#285 = FILL_AREA_STYLE( '', ( #320 ) );
#286 = EDGE_CURVE( '', #321, #321, #322, .T. );
#287 = FILL_AREA_STYLE( '', ( #323 ) );
#288 = EDGE_CURVE( '', #324, #324, #325, .T. );
#289 = FILL_AREA_STYLE( '', ( #326 ) );
#290 = FILL_AREA_STYLE( '', ( #327 ) );
#291 = FILL_AREA_STYLE( '', ( #328 ) );
#292 = FILL_AREA_STYLE_COLOUR( '', #329 );
#293 = VERTEX_POINT( '', #330 );
#294 = CIRCLE( '', #331, 1.62100000000000 );
#295 = VERTEX_POINT( '', #332 );
#296 = CIRCLE( '', #333, 1.62100000000000 );
#297 = FILL_AREA_STYLE_COLOUR( '', #334 );
#298 = VERTEX_POINT( '', #335 );
#299 = CIRCLE( '', #336, 12.8007924589371 );
#300 = VERTEX_POINT( '', #337 );
#301 = CIRCLE( '', #338, 8.50000000000000 );
#302 = FILL_AREA_STYLE_COLOUR( '', #339 );
#303 = FILL_AREA_STYLE_COLOUR( '', #340 );
#304 = VERTEX_POINT( '', #341 );
#305 = CIRCLE( '', #342, 13.0000000000000 );
#306 = FILL_AREA_STYLE_COLOUR( '', #343 );
#307 = VERTEX_POINT( '', #344 );
#308 = CIRCLE( '', #345, 8.00000000000000 );
#309 = FILL_AREA_STYLE_COLOUR( '', #346 );
#310 = VERTEX_POINT( '', #347 );
#311 = CIRCLE( '', #348, 7.00000000000000 );
#312 = VERTEX_POINT( '', #349 );
#313 = CIRCLE( '', #350, 2.12100000000000 );
#314 = FILL_AREA_STYLE_COLOUR( '', #351 );
#315 = VERTEX_POINT( '', #352 );
#316 = CIRCLE( '', #353, 10.7500000000000 );
#317 = FILL_AREA_STYLE_COLOUR( '', #354 );
#318 = VERTEX_POINT( '', #355 );
#319 = CIRCLE( '', #356, 12.3007924589371 );
#320 = FILL_AREA_STYLE_COLOUR( '', #357 );
#321 = VERTEX_POINT( '', #358 );
#322 = CIRCLE( '', #359, 8.00000000000000 );
#323 = FILL_AREA_STYLE_COLOUR( '', #360 );
#324 = VERTEX_POINT( '', #361 );
#325 = CIRCLE( '', #362, 12.5000000000000 );
#326 = FILL_AREA_STYLE_COLOUR( '', #363 );
#327 = FILL_AREA_STYLE_COLOUR( '', #364 );
#328 = FILL_AREA_STYLE_COLOUR( '', #365 );
#329 = COLOUR_RGB( '', 0.752941191196442, 0.752941191196442, 0.752941191196442 );
#330 = CARTESIAN_POINT( '', ( 1.62100000000000, 1.08420217248550E-016, 0.500000000000000 ) );
#331 = AXIS2_PLACEMENT_3D( '', #366, #367, #368 );
#332 = CARTESIAN_POINT( '', ( 0.000000000000000, -1.62100000000000, 9.52600493655633 ) );
#333 = AXIS2_PLACEMENT_3D( '', #369, #370, #371 );
#334 = COLOUR_RGB( '', 0.200000002980232, 0.200000002980232, 0.200000002980232 );
#335 = CARTESIAN_POINT( '', ( 12.8007924589371, -2.34472341079424E-027, 6.00000000000000 ) );
#336 = AXIS2_PLACEMENT_3D( '', #372, #373, #374 );
#337 = CARTESIAN_POINT( '', ( 8.50000000000000, -2.34472341079424E-027, 6.00000000000000 ) );
#338 = AXIS2_PLACEMENT_3D( '', #375, #376, #377 );
#339 = COLOUR_RGB( '', 0.666666686534882, 0.400000005960464, 0.133333340287209 );
#340 = COLOUR_RGB( '', 0.200000002980232, 0.200000002980232, 0.200000002980232 );
#341 = CARTESIAN_POINT( '', ( 13.0000000000000, -2.34472341079424E-027, 6.21778638759486 ) );
#342 = AXIS2_PLACEMENT_3D( '', #378, #379, #380 );
#343 = COLOUR_RGB( '', 0.200000002980232, 0.200000002980232, 0.200000002980232 );
#344 = CARTESIAN_POINT( '', ( 8.00000000000000, -2.34472341079424E-027, 5.50000000000000 ) );
#345 = AXIS2_PLACEMENT_3D( '', #381, #382, #383 );
#346 = COLOUR_RGB( '', 0.752941191196442, 0.752941191196442, 0.752941191196442 );
#347 = CARTESIAN_POINT( '', ( 7.00000000000000, -2.34472341079424E-027, 3.46944695195362E-015 ) );
#348 = AXIS2_PLACEMENT_3D( '', #384, #385, #386 );
#349 = CARTESIAN_POINT( '', ( 2.12100000000000, 1.08420217248550E-016, 3.79627969684937E-015 ) );
#350 = AXIS2_PLACEMENT_3D( '', #387, #388, #389 );
#351 = COLOUR_RGB( '', 0.200000002980232, 0.200000002980232, 0.200000002980232 );
#352 = CARTESIAN_POINT( '', ( 10.7500000000000, -2.34472341079424E-027, 12.0000000000000 ) );
#353 = AXIS2_PLACEMENT_3D( '', #390, #391, #392 );
#354 = COLOUR_RGB( '', 0.200000002980232, 0.200000002980232, 0.200000002980232 );
#355 = CARTESIAN_POINT( '', ( 12.3007924589371, -2.34472341079424E-027, 12.0000000000000 ) );
#356 = AXIS2_PLACEMENT_3D( '', #393, #394, #395 );
#357 = COLOUR_RGB( '', 0.200000002980232, 0.200000002980232, 0.200000002980232 );
#358 = CARTESIAN_POINT( '', ( 8.00000000000000, -2.34472341079424E-027, 1.00000000000000 ) );
#359 = AXIS2_PLACEMENT_3D( '', #396, #397, #398 );
#360 = COLOUR_RGB( '', 0.200000002980232, 0.200000002980232, 0.200000002980232 );
#361 = CARTESIAN_POINT( '', ( 12.5000000000000, -2.34472341079424E-027, 11.8177863875949 ) );
#362 = AXIS2_PLACEMENT_3D( '', #399, #400, #401 );
#363 = COLOUR_RGB( '', 0.200000002980232, 0.200000002980232, 0.200000002980232 );
#364 = COLOUR_RGB( '', 0.666666686534882, 0.400000005960464, 0.133333340287209 );
#365 = COLOUR_RGB( '', 0.200000002980232, 0.200000002980232, 0.200000002980232 );
#366 = CARTESIAN_POINT( '', ( 0.000000000000000, 1.08420217248550E-016, 0.500000000000000 ) );
#367 = DIRECTION( '', ( 0.000000000000000, 0.000000000000000, 1.00000000000000 ) );
#368 = DIRECTION( '', ( 1.00000000000000, 0.000000000000000, 0.000000000000000 ) );
#369 = CARTESIAN_POINT( '', ( 0.000000000000000, 1.08420217248550E-016, 9.52600493655633 ) );
#370 = DIRECTION( '', ( 0.000000000000000, 0.000000000000000, 1.00000000000000 ) );
#371 = DIRECTION( '', ( 0.000000000000000, -1.00000000000000, 0.000000000000000 ) );
#372 = CARTESIAN_POINT( '', ( -1.43568159340735E-043, -2.34472341079424E-027, 6.00000000000000 ) );
#373 = DIRECTION( '', ( 0.000000000000000, 0.000000000000000, 1.00000000000000 ) );
#374 = DIRECTION( '', ( 1.00000000000000, 0.000000000000000, 0.000000000000000 ) );
#375 = CARTESIAN_POINT( '', ( -1.43568159340735E-043, -2.34472341079424E-027, 6.00000000000000 ) );
#376 = DIRECTION( '', ( 0.000000000000000, 0.000000000000000, 1.00000000000000 ) );
#377 = DIRECTION( '', ( 1.00000000000000, 0.000000000000000, 0.000000000000000 ) );
#378 = CARTESIAN_POINT( '', ( -1.43568159340735E-043, -2.34472341079424E-027, 6.21778638759486 ) );
#379 = DIRECTION( '', ( 0.000000000000000, 0.000000000000000, 1.00000000000000 ) );
#380 = DIRECTION( '', ( 1.00000000000000, 0.000000000000000, 0.000000000000000 ) );
#381 = CARTESIAN_POINT( '', ( -1.43568159340735E-043, -2.34472341079424E-027, 5.50000000000000 ) );
#382 = DIRECTION( '', ( 0.000000000000000, 0.000000000000000, 1.00000000000000 ) );
#383 = DIRECTION( '', ( 1.00000000000000, 0.000000000000000, 0.000000000000000 ) );
#384 = CARTESIAN_POINT( '', ( -1.43568159340735E-043, -2.34472341079424E-027, 3.46944695195362E-015 ) );
#385 = DIRECTION( '', ( 0.000000000000000, 0.000000000000000, 1.00000000000000 ) );
#386 = DIRECTION( '', ( 1.00000000000000, 0.000000000000000, 0.000000000000000 ) );
#387 = CARTESIAN_POINT( '', ( 0.000000000000000, 1.08420217248550E-016, 3.79627969684937E-015 ) );
#388 = DIRECTION( '', ( 0.000000000000000, 0.000000000000000, 1.00000000000000 ) );
#389 = DIRECTION( '', ( 1.00000000000000, 0.000000000000000, 0.000000000000000 ) );
#390 = CARTESIAN_POINT( '', ( -1.43568159340735E-043, -2.34472341079424E-027, 12.0000000000000 ) );
#391 = DIRECTION( '', ( 0.000000000000000, 0.000000000000000, 1.00000000000000 ) );
#392 = DIRECTION( '', ( 1.00000000000000, 0.000000000000000, 0.000000000000000 ) );
#393 = CARTESIAN_POINT( '', ( -1.43568159340735E-043, -2.34472341079424E-027, 12.0000000000000 ) );
#394 = DIRECTION( '', ( 0.000000000000000, 0.000000000000000, 1.00000000000000 ) );
#395 = DIRECTION( '', ( 1.00000000000000, 0.000000000000000, 0.000000000000000 ) );
#396 = CARTESIAN_POINT( '', ( -1.43568159340735E-043, -2.34472341079424E-027, 1.00000000000000 ) );
#397 = DIRECTION( '', ( 0.000000000000000, 0.000000000000000, 1.00000000000000 ) );
#398 = DIRECTION( '', ( 1.00000000000000, 0.000000000000000, 0.000000000000000 ) );
#399 = CARTESIAN_POINT( '', ( -1.43568159340735E-043, -2.34472341079424E-027, 11.8177863875949 ) );
#400 = DIRECTION( '', ( 0.000000000000000, 0.000000000000000, 1.00000000000000 ) );
#401 = DIRECTION( '', ( 1.00000000000000, 0.000000000000000, 0.000000000000000 ) );
ENDSEC;
END-ISO-10303-21;
