ISO-10303-21;
HEADER;
FILE_DESCRIPTION( ( 'Unknown' ), '1' );
FILE_NAME( 'E:/98-Dis_3D_per_controllo/ZB/6339005_ZB26_M05/6339005_ZB26_M05.stp', 'Unknown', ( 'Unknown' ), ( 'Unknown' ), 'PSStep 11.0', 'Unknown', '  ' );
FILE_SCHEMA( ( 'AUTOMOTIVE_DESIGN { 1 0 10303 214 1 1 1 1 }' ) );
ENDSEC;
DATA;
#1 = MECHANICAL_DESIGN_GEOMETRIC_PRESENTATION_REPRESENTATION( ' ', ( #10, #11, #12, #13, #14, #15, #16, #17, #18, #19, #20, #21, #22, #23 ), #6 );
#2 = PRODUCT_DEFINITION_CONTEXT( '', #24, 'design' );
#3 = APPLICATION_PROTOCOL_DEFINITION( 'INTERNATIONAL STANDARD', 'automotive_design', 2001, #24 );
#4 = PRODUCT_CATEGORY_RELATIONSHIP( 'NONE', 'NONE', #25, #26 );
#5 = SHAPE_DEFINITION_REPRESENTATION( #27, #28 );
#6 =  ( GEOMETRIC_REPRESENTATION_CONTEXT( 3 )GLOBAL_UNCERTAINTY_ASSIGNED_CONTEXT( ( #31 ) )GLOBAL_UNIT_ASSIGNED_CONTEXT( ( #33, #34, #35 ) )REPRESENTATION_CONTEXT( 'NONE', 'WORKSPACE' ) );
#10 = STYLED_ITEM( '', ( #37 ), #38 );
#11 = STYLED_ITEM( '', ( #39 ), #40 );
#12 = STYLED_ITEM( '', ( #41 ), #42 );
#13 = STYLED_ITEM( '', ( #43 ), #44 );
#14 = STYLED_ITEM( '', ( #45 ), #46 );
#15 = STYLED_ITEM( '', ( #47 ), #48 );
#16 = STYLED_ITEM( '', ( #49 ), #50 );
#17 = STYLED_ITEM( '', ( #51 ), #52 );
#18 = STYLED_ITEM( '', ( #53 ), #54 );
#19 = STYLED_ITEM( '', ( #55 ), #56 );
#20 = STYLED_ITEM( '', ( #57 ), #58 );
#21 = STYLED_ITEM( '', ( #59 ), #60 );
#22 = STYLED_ITEM( '', ( #61 ), #62 );
#23 = STYLED_ITEM( '', ( #63 ), #64 );
#24 = APPLICATION_CONTEXT( 'core data for automotive mechanical design processes' );
#25 = PRODUCT_CATEGORY( 'part', 'NONE' );
#26 = PRODUCT_RELATED_PRODUCT_CATEGORY( 'detail', ' ', ( #65 ) );
#27 = PRODUCT_DEFINITION_SHAPE( 'NONE', 'NONE', #66 );
#28 = ADVANCED_BREP_SHAPE_REPRESENTATION( '6339005', ( #67, #68 ), #6 );
#31 = UNCERTAINTY_MEASURE_WITH_UNIT( LENGTH_MEASURE( 0.00100000000000000 ), #33, '', '' );
#33 =  ( CONVERSION_BASED_UNIT( 'MILLIMETRE', #71 )LENGTH_UNIT(  )NAMED_UNIT( #74 ) );
#34 =  ( NAMED_UNIT( #76 )PLANE_ANGLE_UNIT(  )SI_UNIT( $, .RADIAN. ) );
#35 =  ( NAMED_UNIT( #76 )SI_UNIT( $, .STERADIAN. )SOLID_ANGLE_UNIT(  ) );
#37 = PRESENTATION_STYLE_ASSIGNMENT( ( #82 ) );
#38 = ADVANCED_FACE( '', ( #83, #84 ), #85, .F. );
#39 = PRESENTATION_STYLE_ASSIGNMENT( ( #86 ) );
#40 = ADVANCED_FACE( '', ( #87, #88 ), #89, .F. );
#41 = PRESENTATION_STYLE_ASSIGNMENT( ( #90 ) );
#42 = ADVANCED_FACE( '', ( #91, #92 ), #93, .T. );
#43 = PRESENTATION_STYLE_ASSIGNMENT( ( #94 ) );
#44 = ADVANCED_FACE( '', ( #95, #96 ), #97, .F. );
#45 = PRESENTATION_STYLE_ASSIGNMENT( ( #98 ) );
#46 = ADVANCED_FACE( '', ( #99, #100 ), #101, .T. );
#47 = PRESENTATION_STYLE_ASSIGNMENT( ( #102 ) );
#48 = ADVANCED_FACE( '', ( #103, #104 ), #105, .F. );
#49 = PRESENTATION_STYLE_ASSIGNMENT( ( #106 ) );
#50 = ADVANCED_FACE( '', ( #107, #108 ), #109, .F. );
#51 = PRESENTATION_STYLE_ASSIGNMENT( ( #110 ) );
#52 = ADVANCED_FACE( '', ( #111, #112 ), #113, .F. );
#53 = PRESENTATION_STYLE_ASSIGNMENT( ( #114 ) );
#54 = ADVANCED_FACE( '', ( #115, #116 ), #117, .F. );
#55 = PRESENTATION_STYLE_ASSIGNMENT( ( #118 ) );
#56 = ADVANCED_FACE( '', ( #119 ), #120, .T. );
#57 = PRESENTATION_STYLE_ASSIGNMENT( ( #121 ) );
#58 = ADVANCED_FACE( '', ( #122, #123 ), #124, .T. );
#59 = PRESENTATION_STYLE_ASSIGNMENT( ( #125 ) );
#60 = ADVANCED_FACE( '', ( #126, #127 ), #128, .T. );
#61 = PRESENTATION_STYLE_ASSIGNMENT( ( #129 ) );
#62 = ADVANCED_FACE( '', ( #130, #131 ), #132, .F. );
#63 = PRESENTATION_STYLE_ASSIGNMENT( ( #133 ) );
#64 = ADVANCED_FACE( '', ( #134, #135 ), #136, .T. );
#65 = PRODUCT( '6339005', '6339005', 'PART-6339005-DESC', ( #137 ) );
#66 = PRODUCT_DEFINITION( 'NONE', 'NONE', #138, #2 );
#67 = MANIFOLD_SOLID_BREP( '6339005', #139 );
#68 = AXIS2_PLACEMENT_3D( '', #140, #141, #142 );
#71 = LENGTH_MEASURE_WITH_UNIT( LENGTH_MEASURE( 1.00000000000000 ), #143 );
#74 = DIMENSIONAL_EXPONENTS( 1.00000000000000, 0.000000000000000, 0.000000000000000, 0.000000000000000, 0.000000000000000, 0.000000000000000, 0.000000000000000 );
#76 = DIMENSIONAL_EXPONENTS( 0.000000000000000, 0.000000000000000, 0.000000000000000, 0.000000000000000, 0.000000000000000, 0.000000000000000, 0.000000000000000 );
#82 = SURFACE_STYLE_USAGE( .BOTH., #144 );
#83 = FACE_OUTER_BOUND( '', #145, .T. );
#84 = FACE_OUTER_BOUND( '', #146, .T. );
#85 = CYLINDRICAL_SURFACE( '', #147, 2.06700000000000 );
#86 = SURFACE_STYLE_USAGE( .BOTH., #148 );
#87 = FACE_OUTER_BOUND( '', #149, .T. );
#88 = FACE_BOUND( '', #150, .T. );
#89 = CONICAL_SURFACE( '', #151, 2.06700000000000, 1.02974425867665 );
#90 = SURFACE_STYLE_USAGE( .BOTH., #152 );
#91 = FACE_OUTER_BOUND( '', #153, .T. );
#92 = FACE_OUTER_BOUND( '', #154, .T. );
#93 = TOROIDAL_SURFACE( '', #155, 12.3007924589371, 0.200000000000000 );
#94 = SURFACE_STYLE_USAGE( .BOTH., #156 );
#95 = FACE_OUTER_BOUND( '', #157, .T. );
#96 = FACE_BOUND( '', #158, .T. );
#97 = PLANE( '', #159 );
#98 = SURFACE_STYLE_USAGE( .BOTH., #160 );
#99 = FACE_OUTER_BOUND( '', #161, .T. );
#100 = FACE_OUTER_BOUND( '', #162, .T. );
#101 = TOROIDAL_SURFACE( '', #163, 12.8007924589371, 0.200000000000000 );
#102 = SURFACE_STYLE_USAGE( .BOTH., #164 );
#103 = FACE_OUTER_BOUND( '', #165, .T. );
#104 = FACE_OUTER_BOUND( '', #166, .T. );
#105 = CYLINDRICAL_SURFACE( '', #167, 2.06700000000000 );
#106 = SURFACE_STYLE_USAGE( .BOTH., #168 );
#107 = FACE_OUTER_BOUND( '', #169, .T. );
#108 = FACE_BOUND( '', #170, .T. );
#109 = PLANE( '', #171 );
#110 = SURFACE_STYLE_USAGE( .BOTH., #172 );
#111 = FACE_BOUND( '', #173, .T. );
#112 = FACE_OUTER_BOUND( '', #174, .T. );
#113 = PLANE( '', #175 );
#114 = SURFACE_STYLE_USAGE( .BOTH., #176 );
#115 = FACE_OUTER_BOUND( '', #177, .T. );
#116 = FACE_OUTER_BOUND( '', #178, .T. );
#117 = TOROIDAL_SURFACE( '', #179, 8.50000000000000, 0.500000000000000 );
#118 = SURFACE_STYLE_USAGE( .BOTH., #180 );
#119 = FACE_OUTER_BOUND( '', #181, .T. );
#120 = SPHERICAL_SURFACE( '', #182, 20.7604166666667 );
#121 = SURFACE_STYLE_USAGE( .BOTH., #183 );
#122 = FACE_OUTER_BOUND( '', #184, .T. );
#123 = FACE_OUTER_BOUND( '', #185, .T. );
#124 = CYLINDRICAL_SURFACE( '', #186, 8.00000000000000 );
#125 = SURFACE_STYLE_USAGE( .BOTH., #187 );
#126 = FACE_OUTER_BOUND( '', #188, .T. );
#127 = FACE_OUTER_BOUND( '', #189, .T. );
#128 = TOROIDAL_SURFACE( '', #190, 7.00000000000000, 1.00000000000000 );
#129 = SURFACE_STYLE_USAGE( .BOTH., #191 );
#130 = FACE_BOUND( '', #192, .T. );
#131 = FACE_OUTER_BOUND( '', #193, .T. );
#132 = CONICAL_SURFACE( '', #194, 2.56700000000000, 0.785398163397448 );
#133 = SURFACE_STYLE_USAGE( .BOTH., #195 );
#134 = FACE_BOUND( '', #196, .T. );
#135 = FACE_OUTER_BOUND( '', #197, .T. );
#136 = CONICAL_SURFACE( '', #198, 13.0000000000000, 0.0890495826344968 );
#137 = PRODUCT_CONTEXT( '', #24, 'mechanical' );
#138 = PRODUCT_DEFINITION_FORMATION_WITH_SPECIFIED_SOURCE( ' ', 'NONE', #65, .NOT_KNOWN. );
#139 = CLOSED_SHELL( '', ( #44, #40, #62, #38, #48, #60, #58, #54, #50, #46, #64, #42, #52, #56 ) );
#140 = CARTESIAN_POINT( '', ( 0.000000000000000, 0.000000000000000, 0.000000000000000 ) );
#141 = DIRECTION( '', ( 0.000000000000000, 0.000000000000000, 1.00000000000000 ) );
#142 = DIRECTION( '', ( 1.00000000000000, 0.000000000000000, 0.000000000000000 ) );
#143 =  ( LENGTH_UNIT(  )NAMED_UNIT( #74 )SI_UNIT( .MILLI., .METRE. ) );
#144 = SURFACE_SIDE_STYLE( '', ( #200 ) );
#145 = EDGE_LOOP( '', ( #201 ) );
#146 = EDGE_LOOP( '', ( #202 ) );
#147 = AXIS2_PLACEMENT_3D( '', #203, #204, #205 );
#148 = SURFACE_SIDE_STYLE( '', ( #206 ) );
#149 = EDGE_LOOP( '', ( #207 ) );
#150 = VERTEX_LOOP( '', #208 );
#151 = AXIS2_PLACEMENT_3D( '', #209, #210, #211 );
#152 = SURFACE_SIDE_STYLE( '', ( #212 ) );
#153 = EDGE_LOOP( '', ( #213 ) );
#154 = EDGE_LOOP( '', ( #214 ) );
#155 = AXIS2_PLACEMENT_3D( '', #215, #216, #217 );
#156 = SURFACE_SIDE_STYLE( '', ( #218 ) );
#157 = EDGE_LOOP( '', ( #219 ) );
#158 = EDGE_LOOP( '', ( #220 ) );
#159 = AXIS2_PLACEMENT_3D( '', #221, #222, #223 );
#160 = SURFACE_SIDE_STYLE( '', ( #224 ) );
#161 = EDGE_LOOP( '', ( #225 ) );
#162 = EDGE_LOOP( '', ( #226 ) );
#163 = AXIS2_PLACEMENT_3D( '', #227, #228, #229 );
#164 = SURFACE_SIDE_STYLE( '', ( #230 ) );
#165 = EDGE_LOOP( '', ( #231 ) );
#166 = EDGE_LOOP( '', ( #232 ) );
#167 = AXIS2_PLACEMENT_3D( '', #233, #234, #235 );
#168 = SURFACE_SIDE_STYLE( '', ( #236 ) );
#169 = EDGE_LOOP( '', ( #237 ) );
#170 = EDGE_LOOP( '', ( #238 ) );
#171 = AXIS2_PLACEMENT_3D( '', #239, #240, #241 );
#172 = SURFACE_SIDE_STYLE( '', ( #242 ) );
#173 = EDGE_LOOP( '', ( #243 ) );
#174 = EDGE_LOOP( '', ( #244 ) );
#175 = AXIS2_PLACEMENT_3D( '', #245, #246, #247 );
#176 = SURFACE_SIDE_STYLE( '', ( #248 ) );
#177 = EDGE_LOOP( '', ( #249 ) );
#178 = EDGE_LOOP( '', ( #250 ) );
#179 = AXIS2_PLACEMENT_3D( '', #251, #252, #253 );
#180 = SURFACE_SIDE_STYLE( '', ( #254 ) );
#181 = EDGE_LOOP( '', ( #255 ) );
#182 = AXIS2_PLACEMENT_3D( '', #256, #257, #258 );
#183 = SURFACE_SIDE_STYLE( '', ( #259 ) );
#184 = EDGE_LOOP( '', ( #260 ) );
#185 = EDGE_LOOP( '', ( #261 ) );
#186 = AXIS2_PLACEMENT_3D( '', #262, #263, #264 );
#187 = SURFACE_SIDE_STYLE( '', ( #265 ) );
#188 = EDGE_LOOP( '', ( #266 ) );
#189 = EDGE_LOOP( '', ( #267 ) );
#190 = AXIS2_PLACEMENT_3D( '', #268, #269, #270 );
#191 = SURFACE_SIDE_STYLE( '', ( #271 ) );
#192 = EDGE_LOOP( '', ( #272 ) );
#193 = EDGE_LOOP( '', ( #273 ) );
#194 = AXIS2_PLACEMENT_3D( '', #274, #275, #276 );
#195 = SURFACE_SIDE_STYLE( '', ( #277 ) );
#196 = EDGE_LOOP( '', ( #278 ) );
#197 = EDGE_LOOP( '', ( #279 ) );
#198 = AXIS2_PLACEMENT_3D( '', #280, #281, #282 );
#200 = SURFACE_STYLE_FILL_AREA( #283 );
#201 = ORIENTED_EDGE( '', *, *, #284, .T. );
#202 = ORIENTED_EDGE( '', *, *, #285, .F. );
#203 = CARTESIAN_POINT( '', ( 0.000000000000000, -1.08420217248550E-016, 3.81158727627215E-015 ) );
#204 = DIRECTION( '', ( -0.000000000000000, 0.000000000000000, -1.00000000000000 ) );
#205 = DIRECTION( '', ( 0.000000000000000, 1.00000000000000, 0.000000000000000 ) );
#206 = SURFACE_STYLE_FILL_AREA( #286 );
#207 = ORIENTED_EDGE( '', *, *, #287, .F. );
#208 = VERTEX_POINT( '', #288 );
#209 = CARTESIAN_POINT( '', ( 0.000000000000000, -1.08420217248550E-016, 9.25802110047004 ) );
#210 = DIRECTION( '', ( 0.000000000000000, -0.000000000000000, -1.00000000000000 ) );
#211 = DIRECTION( '', ( 0.000000000000000, -1.00000000000000, 0.000000000000000 ) );
#212 = SURFACE_STYLE_FILL_AREA( #289 );
#213 = ORIENTED_EDGE( '', *, *, #290, .F. );
#214 = ORIENTED_EDGE( '', *, *, #291, .T. );
#215 = CARTESIAN_POINT( '', ( 0.000000000000000, 0.000000000000000, 11.8000000000000 ) );
#216 = DIRECTION( '', ( 0.000000000000000, 0.000000000000000, 1.00000000000000 ) );
#217 = DIRECTION( '', ( 1.00000000000000, 0.000000000000000, 0.000000000000000 ) );
#218 = SURFACE_STYLE_FILL_AREA( #292 );
#219 = ORIENTED_EDGE( '', *, *, #293, .F. );
#220 = ORIENTED_EDGE( '', *, *, #294, .T. );
#221 = CARTESIAN_POINT( '', ( 2.75536429610035E-016, 4.50000000000000, 4.02589338819107E-015 ) );
#222 = DIRECTION( '', ( 0.000000000000000, 0.000000000000000, 1.00000000000000 ) );
#223 = DIRECTION( '', ( 1.00000000000000, 0.000000000000000, 0.000000000000000 ) );
#224 = SURFACE_STYLE_FILL_AREA( #295 );
#225 = ORIENTED_EDGE( '', *, *, #296, .F. );
#226 = ORIENTED_EDGE( '', *, *, #297, .T. );
#227 = CARTESIAN_POINT( '', ( 0.000000000000000, 0.000000000000000, 6.20000000000000 ) );
#228 = DIRECTION( '', ( 0.000000000000000, 0.000000000000000, 1.00000000000000 ) );
#229 = DIRECTION( '', ( 1.00000000000000, 0.000000000000000, 0.000000000000000 ) );
#230 = SURFACE_STYLE_FILL_AREA( #298 );
#231 = ORIENTED_EDGE( '', *, *, #287, .T. );
#232 = ORIENTED_EDGE( '', *, *, #285, .T. );
#233 = CARTESIAN_POINT( '', ( 0.000000000000000, -1.08420217248550E-016, 3.81158727627215E-015 ) );
#234 = DIRECTION( '', ( -0.000000000000000, 0.000000000000000, -1.00000000000000 ) );
#235 = DIRECTION( '', ( 0.000000000000000, 1.00000000000000, 0.000000000000000 ) );
#236 = SURFACE_STYLE_FILL_AREA( #299 );
#237 = ORIENTED_EDGE( '', *, *, #297, .F. );
#238 = ORIENTED_EDGE( '', *, *, #300, .T. );
#239 = CARTESIAN_POINT( '', ( 5.20457700374511E-016, 8.50000000000000, 6.00000000000000 ) );
#240 = DIRECTION( '', ( 0.000000000000000, 0.000000000000000, 1.00000000000000 ) );
#241 = DIRECTION( '', ( 1.00000000000000, 0.000000000000000, 0.000000000000000 ) );
#242 = SURFACE_STYLE_FILL_AREA( #301 );
#243 = ORIENTED_EDGE( '', *, *, #302, .F. );
#244 = ORIENTED_EDGE( '', *, *, #290, .T. );
#245 = CARTESIAN_POINT( '', ( 7.53181430113238E-016, 12.3007924589371, 12.0000000000000 ) );
#246 = DIRECTION( '', ( 0.000000000000000, 0.000000000000000, -1.00000000000000 ) );
#247 = DIRECTION( '', ( -1.00000000000000, 0.000000000000000, 0.000000000000000 ) );
#248 = SURFACE_STYLE_FILL_AREA( #303 );
#249 = ORIENTED_EDGE( '', *, *, #300, .F. );
#250 = ORIENTED_EDGE( '', *, *, #304, .T. );
#251 = CARTESIAN_POINT( '', ( 0.000000000000000, 0.000000000000000, 5.50000000000000 ) );
#252 = DIRECTION( '', ( 0.000000000000000, 0.000000000000000, 1.00000000000000 ) );
#253 = DIRECTION( '', ( 1.00000000000000, 0.000000000000000, 0.000000000000000 ) );
#254 = SURFACE_STYLE_FILL_AREA( #305 );
#255 = ORIENTED_EDGE( '', *, *, #302, .T. );
#256 = CARTESIAN_POINT( '', ( 5.31088347701510E-032, 8.67361737988404E-016, -5.76041666666667 ) );
#257 = DIRECTION( '', ( 0.000000000000000, 0.000000000000000, 1.00000000000000 ) );
#258 = DIRECTION( '', ( 6.12303176911189E-017, 1.00000000000000, 0.000000000000000 ) );
#259 = SURFACE_STYLE_FILL_AREA( #306 );
#260 = ORIENTED_EDGE( '', *, *, #304, .F. );
#261 = ORIENTED_EDGE( '', *, *, #307, .T. );
#262 = CARTESIAN_POINT( '', ( -1.43568159340735E-043, -2.34472341079424E-027, 14.0000000000000 ) );
#263 = DIRECTION( '', ( -0.000000000000000, -0.000000000000000, -1.00000000000000 ) );
#264 = DIRECTION( '', ( 1.00000000000000, 0.000000000000000, 0.000000000000000 ) );
#265 = SURFACE_STYLE_FILL_AREA( #308 );
#266 = ORIENTED_EDGE( '', *, *, #307, .F. );
#267 = ORIENTED_EDGE( '', *, *, #293, .T. );
#268 = CARTESIAN_POINT( '', ( 0.000000000000000, 0.000000000000000, 1.00000000000000 ) );
#269 = DIRECTION( '', ( 0.000000000000000, 0.000000000000000, 1.00000000000000 ) );
#270 = DIRECTION( '', ( 1.00000000000000, 0.000000000000000, 0.000000000000000 ) );
#271 = SURFACE_STYLE_FILL_AREA( #309 );
#272 = ORIENTED_EDGE( '', *, *, #284, .F. );
#273 = ORIENTED_EDGE( '', *, *, #294, .F. );
#274 = CARTESIAN_POINT( '', ( 0.000000000000000, -1.08420217248550E-016, 3.81158727627215E-015 ) );
#275 = DIRECTION( '', ( -0.000000000000000, 0.000000000000000, -1.00000000000000 ) );
#276 = DIRECTION( '', ( -1.00000000000000, 0.000000000000000, 0.000000000000000 ) );
#277 = SURFACE_STYLE_FILL_AREA( #310 );
#278 = ORIENTED_EDGE( '', *, *, #291, .F. );
#279 = ORIENTED_EDGE( '', *, *, #296, .T. );
#280 = CARTESIAN_POINT( '', ( -1.43568159340735E-043, -2.34472341079424E-027, 6.21778638759486 ) );
#281 = DIRECTION( '', ( -0.000000000000000, 0.000000000000000, -1.00000000000000 ) );
#282 = DIRECTION( '', ( -1.00000000000000, 0.000000000000000, 0.000000000000000 ) );
#283 = FILL_AREA_STYLE( '', ( #311 ) );
#284 = EDGE_CURVE( '', #312, #312, #313, .F. );
#285 = EDGE_CURVE( '', #314, #314, #315, .T. );
#286 = FILL_AREA_STYLE( '', ( #316 ) );
#287 = EDGE_CURVE( '', #317, #317, #318, .T. );
#288 = CARTESIAN_POINT( '', ( 0.000000000000000, -1.08420217248550E-016, 10.5000000000000 ) );
#289 = FILL_AREA_STYLE( '', ( #319 ) );
#290 = EDGE_CURVE( '', #320, #320, #321, .T. );
#291 = EDGE_CURVE( '', #322, #322, #323, .T. );
#292 = FILL_AREA_STYLE( '', ( #324 ) );
#293 = EDGE_CURVE( '', #325, #325, #326, .T. );
#294 = EDGE_CURVE( '', #327, #327, #328, .T. );
#295 = FILL_AREA_STYLE( '', ( #329 ) );
#296 = EDGE_CURVE( '', #330, #330, #331, .T. );
#297 = EDGE_CURVE( '', #332, #332, #333, .T. );
#298 = FILL_AREA_STYLE( '', ( #334 ) );
#299 = FILL_AREA_STYLE( '', ( #335 ) );
#300 = EDGE_CURVE( '', #336, #336, #337, .T. );
#301 = FILL_AREA_STYLE( '', ( #338 ) );
#302 = EDGE_CURVE( '', #339, #339, #340, .T. );
#303 = FILL_AREA_STYLE( '', ( #341 ) );
#304 = EDGE_CURVE( '', #342, #342, #343, .T. );
#305 = FILL_AREA_STYLE( '', ( #344 ) );
#306 = FILL_AREA_STYLE( '', ( #345 ) );
#307 = EDGE_CURVE( '', #346, #346, #347, .T. );
#308 = FILL_AREA_STYLE( '', ( #348 ) );
#309 = FILL_AREA_STYLE( '', ( #349 ) );
#310 = FILL_AREA_STYLE( '', ( #350 ) );
#311 = FILL_AREA_STYLE_COLOUR( '', #351 );
#312 = VERTEX_POINT( '', #352 );
#313 = CIRCLE( '', #353, 2.06700000000000 );
#314 = VERTEX_POINT( '', #354 );
#315 = CIRCLE( '', #355, 2.06700000000000 );
#316 = FILL_AREA_STYLE_COLOUR( '', #356 );
#317 = VERTEX_POINT( '', #357 );
#318 = CIRCLE( '', #358, 2.06700000000000 );
#319 = FILL_AREA_STYLE_COLOUR( '', #359 );
#320 = VERTEX_POINT( '', #360 );
#321 = CIRCLE( '', #361, 12.3007924589371 );
#322 = VERTEX_POINT( '', #362 );
#323 = CIRCLE( '', #363, 12.5000000000000 );
#324 = FILL_AREA_STYLE_COLOUR( '', #364 );
#325 = VERTEX_POINT( '', #365 );
#326 = CIRCLE( '', #366, 7.00000000000000 );
#327 = VERTEX_POINT( '', #367 );
#328 = CIRCLE( '', #368, 2.56700000000000 );
#329 = FILL_AREA_STYLE_COLOUR( '', #369 );
#330 = VERTEX_POINT( '', #370 );
#331 = CIRCLE( '', #371, 13.0000000000000 );
#332 = VERTEX_POINT( '', #372 );
#333 = CIRCLE( '', #373, 12.8007924589371 );
#334 = FILL_AREA_STYLE_COLOUR( '', #374 );
#335 = FILL_AREA_STYLE_COLOUR( '', #375 );
#336 = VERTEX_POINT( '', #376 );
#337 = CIRCLE( '', #377, 8.50000000000000 );
#338 = FILL_AREA_STYLE_COLOUR( '', #378 );
#339 = VERTEX_POINT( '', #379 );
#340 = CIRCLE( '', #380, 10.7500000000000 );
#341 = FILL_AREA_STYLE_COLOUR( '', #381 );
#342 = VERTEX_POINT( '', #382 );
#343 = CIRCLE( '', #383, 8.00000000000000 );
#344 = FILL_AREA_STYLE_COLOUR( '', #384 );
#345 = FILL_AREA_STYLE_COLOUR( '', #385 );
#346 = VERTEX_POINT( '', #386 );
#347 = CIRCLE( '', #387, 8.00000000000000 );
#348 = FILL_AREA_STYLE_COLOUR( '', #388 );
#349 = FILL_AREA_STYLE_COLOUR( '', #389 );
#350 = FILL_AREA_STYLE_COLOUR( '', #390 );
#351 = COLOUR_RGB( '', 0.752941191196442, 0.752941191196442, 0.752941191196442 );
#352 = CARTESIAN_POINT( '', ( 2.06700000000000, -1.08420217248550E-016, 0.500000000000000 ) );
#353 = AXIS2_PLACEMENT_3D( '', #391, #392, #393 );
#354 = CARTESIAN_POINT( '', ( 0.000000000000000, 2.06700000000000, 8.50000000000000 ) );
#355 = AXIS2_PLACEMENT_3D( '', #394, #395, #396 );
#356 = COLOUR_RGB( '', 0.666666686534882, 0.400000005960464, 0.133333340287209 );
#357 = CARTESIAN_POINT( '', ( 0.000000000000000, -2.06700000000000, 9.25802110047004 ) );
#358 = AXIS2_PLACEMENT_3D( '', #397, #398, #399 );
#359 = COLOUR_RGB( '', 0.200000002980232, 0.200000002980232, 0.200000002980232 );
#360 = CARTESIAN_POINT( '', ( 12.3007924589371, -2.34472341079424E-027, 12.0000000000000 ) );
#361 = AXIS2_PLACEMENT_3D( '', #400, #401, #402 );
#362 = CARTESIAN_POINT( '', ( 12.5000000000000, -2.34472341079424E-027, 11.8177863875949 ) );
#363 = AXIS2_PLACEMENT_3D( '', #403, #404, #405 );
#364 = COLOUR_RGB( '', 0.752941191196442, 0.752941191196442, 0.752941191196442 );
#365 = CARTESIAN_POINT( '', ( 7.00000000000000, -2.34472341079424E-027, 3.46944695195362E-015 ) );
#366 = AXIS2_PLACEMENT_3D( '', #406, #407, #408 );
#367 = CARTESIAN_POINT( '', ( 2.56700000000000, -1.08420217248550E-016, 3.81158727627215E-015 ) );
#368 = AXIS2_PLACEMENT_3D( '', #409, #410, #411 );
#369 = COLOUR_RGB( '', 0.200000002980232, 0.200000002980232, 0.200000002980232 );
#370 = CARTESIAN_POINT( '', ( 13.0000000000000, -2.34472341079424E-027, 6.21778638759486 ) );
#371 = AXIS2_PLACEMENT_3D( '', #412, #413, #414 );
#372 = CARTESIAN_POINT( '', ( 12.8007924589371, -2.34472341079424E-027, 6.00000000000000 ) );
#373 = AXIS2_PLACEMENT_3D( '', #415, #416, #417 );
#374 = COLOUR_RGB( '', 0.666666686534882, 0.400000005960464, 0.133333340287209 );
#375 = COLOUR_RGB( '', 0.200000002980232, 0.200000002980232, 0.200000002980232 );
#376 = CARTESIAN_POINT( '', ( 8.50000000000000, -2.34472341079424E-027, 6.00000000000000 ) );
#377 = AXIS2_PLACEMENT_3D( '', #418, #419, #420 );
#378 = COLOUR_RGB( '', 0.200000002980232, 0.200000002980232, 0.200000002980232 );
#379 = CARTESIAN_POINT( '', ( 10.7500000000000, -2.34472341079424E-027, 12.0000000000000 ) );
#380 = AXIS2_PLACEMENT_3D( '', #421, #422, #423 );
#381 = COLOUR_RGB( '', 0.200000002980232, 0.200000002980232, 0.200000002980232 );
#382 = CARTESIAN_POINT( '', ( 8.00000000000000, -2.34472341079424E-027, 5.50000000000000 ) );
#383 = AXIS2_PLACEMENT_3D( '', #424, #425, #426 );
#384 = COLOUR_RGB( '', 0.200000002980232, 0.200000002980232, 0.200000002980232 );
#385 = COLOUR_RGB( '', 0.200000002980232, 0.200000002980232, 0.200000002980232 );
#386 = CARTESIAN_POINT( '', ( 8.00000000000000, -2.34472341079424E-027, 1.00000000000000 ) );
#387 = AXIS2_PLACEMENT_3D( '', #427, #428, #429 );
#388 = COLOUR_RGB( '', 0.200000002980232, 0.200000002980232, 0.200000002980232 );
#389 = COLOUR_RGB( '', 0.666666686534882, 0.400000005960464, 0.133333340287209 );
#390 = COLOUR_RGB( '', 0.200000002980232, 0.200000002980232, 0.200000002980232 );
#391 = CARTESIAN_POINT( '', ( 0.000000000000000, -1.08420217248550E-016, 0.500000000000000 ) );
#392 = DIRECTION( '', ( 0.000000000000000, 0.000000000000000, 1.00000000000000 ) );
#393 = DIRECTION( '', ( 1.00000000000000, 0.000000000000000, 0.000000000000000 ) );
#394 = CARTESIAN_POINT( '', ( 0.000000000000000, -1.08420217248550E-016, 8.50000000000000 ) );
#395 = DIRECTION( '', ( 0.000000000000000, 0.000000000000000, -1.00000000000000 ) );
#396 = DIRECTION( '', ( 0.000000000000000, 1.00000000000000, 0.000000000000000 ) );
#397 = CARTESIAN_POINT( '', ( 0.000000000000000, -1.08420217248550E-016, 9.25802110047004 ) );
#398 = DIRECTION( '', ( 0.000000000000000, 0.000000000000000, 1.00000000000000 ) );
#399 = DIRECTION( '', ( 0.000000000000000, -1.00000000000000, 0.000000000000000 ) );
#400 = CARTESIAN_POINT( '', ( -1.43568159340735E-043, -2.34472341079424E-027, 12.0000000000000 ) );
#401 = DIRECTION( '', ( 0.000000000000000, 0.000000000000000, 1.00000000000000 ) );
#402 = DIRECTION( '', ( 1.00000000000000, 0.000000000000000, 0.000000000000000 ) );
#403 = CARTESIAN_POINT( '', ( -1.43568159340735E-043, -2.34472341079424E-027, 11.8177863875949 ) );
#404 = DIRECTION( '', ( 0.000000000000000, 0.000000000000000, 1.00000000000000 ) );
#405 = DIRECTION( '', ( 1.00000000000000, 0.000000000000000, 0.000000000000000 ) );
#406 = CARTESIAN_POINT( '', ( -1.43568159340735E-043, -2.34472341079424E-027, 3.46944695195362E-015 ) );
#407 = DIRECTION( '', ( 0.000000000000000, 0.000000000000000, 1.00000000000000 ) );
#408 = DIRECTION( '', ( 1.00000000000000, 0.000000000000000, 0.000000000000000 ) );
#409 = CARTESIAN_POINT( '', ( 0.000000000000000, -1.08420217248550E-016, 3.81158727627215E-015 ) );
#410 = DIRECTION( '', ( 0.000000000000000, 0.000000000000000, 1.00000000000000 ) );
#411 = DIRECTION( '', ( 1.00000000000000, 0.000000000000000, 0.000000000000000 ) );
#412 = CARTESIAN_POINT( '', ( -1.43568159340735E-043, -2.34472341079424E-027, 6.21778638759486 ) );
#413 = DIRECTION( '', ( 0.000000000000000, 0.000000000000000, 1.00000000000000 ) );
#414 = DIRECTION( '', ( 1.00000000000000, 0.000000000000000, 0.000000000000000 ) );
#415 = CARTESIAN_POINT( '', ( -1.43568159340735E-043, -2.34472341079424E-027, 6.00000000000000 ) );
#416 = DIRECTION( '', ( 0.000000000000000, 0.000000000000000, 1.00000000000000 ) );
#417 = DIRECTION( '', ( 1.00000000000000, 0.000000000000000, 0.000000000000000 ) );
#418 = CARTESIAN_POINT( '', ( -1.43568159340735E-043, -2.34472341079424E-027, 6.00000000000000 ) );
#419 = DIRECTION( '', ( 0.000000000000000, 0.000000000000000, 1.00000000000000 ) );
#420 = DIRECTION( '', ( 1.00000000000000, 0.000000000000000, 0.000000000000000 ) );
#421 = CARTESIAN_POINT( '', ( -1.43568159340735E-043, -2.34472341079424E-027, 12.0000000000000 ) );
#422 = DIRECTION( '', ( 0.000000000000000, 0.000000000000000, 1.00000000000000 ) );
#423 = DIRECTION( '', ( 1.00000000000000, 0.000000000000000, 0.000000000000000 ) );
#424 = CARTESIAN_POINT( '', ( -1.43568159340735E-043, -2.34472341079424E-027, 5.50000000000000 ) );
#425 = DIRECTION( '', ( 0.000000000000000, 0.000000000000000, 1.00000000000000 ) );
#426 = DIRECTION( '', ( 1.00000000000000, 0.000000000000000, 0.000000000000000 ) );
#427 = CARTESIAN_POINT( '', ( -1.43568159340735E-043, -2.34472341079424E-027, 1.00000000000000 ) );
#428 = DIRECTION( '', ( 0.000000000000000, 0.000000000000000, 1.00000000000000 ) );
#429 = DIRECTION( '', ( 1.00000000000000, 0.000000000000000, 0.000000000000000 ) );
ENDSEC;
END-ISO-10303-21;
