ISO-10303-21;
HEADER;
FILE_DESCRIPTION( ( 'Unknown' ), '1' );
FILE_NAME( '//SBS2003/HD_Usb/Disegni/10_GAMM_CD/2- Gamm_STEP/03 - MANOPOLE/03_22.2-PT/6340000_PT26.stp', 'Unknown', ( 'Unknown' ), ( 'Unknown' ), 'PSStep 11.0', 'Unknown', '  ' );
FILE_SCHEMA( ( 'AUTOMOTIVE_DESIGN { 1 0 10303 214 1 1 1 1 }' ) );
ENDSEC;
DATA;
#1 = MECHANICAL_DESIGN_GEOMETRIC_PRESENTATION_REPRESENTATION( ' ', ( #10, #11, #12, #13, #14, #15, #16, #17, #18, #19, #20, #21, #22, #23 ), #6 );
#2 = PRODUCT_DEFINITION_CONTEXT( '', #24, 'design' );
#3 = APPLICATION_PROTOCOL_DEFINITION( 'INTERNATIONAL STANDARD', 'automotive_design', 2001, #24 );
#4 = PRODUCT_CATEGORY_RELATIONSHIP( 'NONE', 'NONE', #25, #26 );
#5 = SHAPE_DEFINITION_REPRESENTATION( #27, #28 );
#6 =  ( GEOMETRIC_REPRESENTATION_CONTEXT( 3 )GLOBAL_UNCERTAINTY_ASSIGNED_CONTEXT( ( #31 ) )GLOBAL_UNIT_ASSIGNED_CONTEXT( ( #33, #34, #35 ) )REPRESENTATION_CONTEXT( 'NONE', 'WORKSPACE' ) );
#10 = STYLED_ITEM( '', ( #37 ), #38 );
#11 = STYLED_ITEM( '', ( #39 ), #40 );
#12 = STYLED_ITEM( '', ( #41 ), #42 );
#13 = STYLED_ITEM( '', ( #43 ), #44 );
#14 = STYLED_ITEM( '', ( #45 ), #46 );
#15 = STYLED_ITEM( '', ( #47 ), #48 );
#16 = STYLED_ITEM( '', ( #49 ), #50 );
#17 = STYLED_ITEM( '', ( #51 ), #52 );
#18 = STYLED_ITEM( '', ( #53 ), #54 );
#19 = STYLED_ITEM( '', ( #55 ), #56 );
#20 = STYLED_ITEM( '', ( #57 ), #58 );
#21 = STYLED_ITEM( '', ( #59 ), #60 );
#22 = STYLED_ITEM( '', ( #61 ), #62 );
#23 = STYLED_ITEM( '', ( #63 ), #64 );
#24 = APPLICATION_CONTEXT( 'core data for automotive mechanical design processes' );
#25 = PRODUCT_CATEGORY( 'part', 'NONE' );
#26 = PRODUCT_RELATED_PRODUCT_CATEGORY( 'detail', ' ', ( #65 ) );
#27 = PRODUCT_DEFINITION_SHAPE( 'NONE', 'NONE', #66 );
#28 = ADVANCED_BREP_SHAPE_REPRESENTATION( '6340000', ( #67, #68 ), #6 );
#31 = UNCERTAINTY_MEASURE_WITH_UNIT( LENGTH_MEASURE( 0.00100000000000000 ), #33, '', '' );
#33 =  ( CONVERSION_BASED_UNIT( 'MILLIMETRE', #71 )LENGTH_UNIT(  )NAMED_UNIT( #74 ) );
#34 =  ( NAMED_UNIT( #76 )PLANE_ANGLE_UNIT(  )SI_UNIT( $, .RADIAN. ) );
#35 =  ( NAMED_UNIT( #76 )SI_UNIT( $, .STERADIAN. )SOLID_ANGLE_UNIT(  ) );
#37 = PRESENTATION_STYLE_ASSIGNMENT( ( #82 ) );
#38 = ADVANCED_FACE( '', ( #83, #84 ), #85, .T. );
#39 = PRESENTATION_STYLE_ASSIGNMENT( ( #86 ) );
#40 = ADVANCED_FACE( '', ( #87, #88 ), #89, .T. );
#41 = PRESENTATION_STYLE_ASSIGNMENT( ( #90 ) );
#42 = ADVANCED_FACE( '', ( #91, #92 ), #93, .F. );
#43 = PRESENTATION_STYLE_ASSIGNMENT( ( #94 ) );
#44 = ADVANCED_FACE( '', ( #95, #96 ), #97, .F. );
#45 = PRESENTATION_STYLE_ASSIGNMENT( ( #98 ) );
#46 = ADVANCED_FACE( '', ( #99, #100 ), #101, .T. );
#47 = PRESENTATION_STYLE_ASSIGNMENT( ( #102 ) );
#48 = ADVANCED_FACE( '', ( #103 ), #104, .T. );
#49 = PRESENTATION_STYLE_ASSIGNMENT( ( #105 ) );
#50 = ADVANCED_FACE( '', ( #106, #107 ), #108, .F. );
#51 = PRESENTATION_STYLE_ASSIGNMENT( ( #109 ) );
#52 = ADVANCED_FACE( '', ( #110, #111 ), #112, .T. );
#53 = PRESENTATION_STYLE_ASSIGNMENT( ( #113 ) );
#54 = ADVANCED_FACE( '', ( #114, #115 ), #116, .T. );
#55 = PRESENTATION_STYLE_ASSIGNMENT( ( #117 ) );
#56 = ADVANCED_FACE( '', ( #118, #119 ), #120, .F. );
#57 = PRESENTATION_STYLE_ASSIGNMENT( ( #121 ) );
#58 = ADVANCED_FACE( '', ( #122, #123 ), #124, .T. );
#59 = PRESENTATION_STYLE_ASSIGNMENT( ( #125 ) );
#60 = ADVANCED_FACE( '', ( #126, #127 ), #128, .F. );
#61 = PRESENTATION_STYLE_ASSIGNMENT( ( #129 ) );
#62 = ADVANCED_FACE( '', ( #130, #131 ), #132, .F. );
#63 = PRESENTATION_STYLE_ASSIGNMENT( ( #133 ) );
#64 = ADVANCED_FACE( '', ( #134, #135 ), #136, .F. );
#65 = PRODUCT( '6340000', '6340000', 'PART-6340000-DESC', ( #137 ) );
#66 = PRODUCT_DEFINITION( 'NONE', 'NONE', #138, #2 );
#67 = MANIFOLD_SOLID_BREP( '6340000', #139 );
#68 = AXIS2_PLACEMENT_3D( '', #140, #141, #142 );
#71 = LENGTH_MEASURE_WITH_UNIT( LENGTH_MEASURE( 1.00000000000000 ), #143 );
#74 = DIMENSIONAL_EXPONENTS( 1.00000000000000, 0.000000000000000, 0.000000000000000, 0.000000000000000, 0.000000000000000, 0.000000000000000, 0.000000000000000 );
#76 = DIMENSIONAL_EXPONENTS( 0.000000000000000, 0.000000000000000, 0.000000000000000, 0.000000000000000, 0.000000000000000, 0.000000000000000, 0.000000000000000 );
#82 = SURFACE_STYLE_USAGE( .BOTH., #144 );
#83 = FACE_OUTER_BOUND( '', #145, .T. );
#84 = FACE_OUTER_BOUND( '', #146, .T. );
#85 = TOROIDAL_SURFACE( '', #147, 12.0000000000000, 1.00000000000000 );
#86 = SURFACE_STYLE_USAGE( .BOTH., #148 );
#87 = FACE_OUTER_BOUND( '', #149, .T. );
#88 = FACE_BOUND( '', #150, .T. );
#89 = CONICAL_SURFACE( '', #151, 11.5000000000000, 0.785398163397448 );
#90 = SURFACE_STYLE_USAGE( .BOTH., #152 );
#91 = FACE_OUTER_BOUND( '', #153, .T. );
#92 = FACE_OUTER_BOUND( '', #154, .T. );
#93 = CYLINDRICAL_SURFACE( '', #155, 1.62100000000000 );
#94 = SURFACE_STYLE_USAGE( .BOTH., #156 );
#95 = FACE_OUTER_BOUND( '', #157, .T. );
#96 = FACE_BOUND( '', #158, .T. );
#97 = PLANE( '', #159 );
#98 = SURFACE_STYLE_USAGE( .BOTH., #160 );
#99 = FACE_OUTER_BOUND( '', #161, .T. );
#100 = FACE_OUTER_BOUND( '', #162, .T. );
#101 = CYLINDRICAL_SURFACE( '', #163, 6.00000000000000 );
#102 = SURFACE_STYLE_USAGE( .BOTH., #164 );
#103 = FACE_OUTER_BOUND( '', #165, .T. );
#104 = SPHERICAL_SURFACE( '', #166, 60.0000000000000 );
#105 = SURFACE_STYLE_USAGE( .BOTH., #167 );
#106 = FACE_OUTER_BOUND( '', #168, .T. );
#107 = FACE_BOUND( '', #169, .T. );
#108 = PLANE( '', #170 );
#109 = SURFACE_STYLE_USAGE( .BOTH., #171 );
#110 = FACE_OUTER_BOUND( '', #172, .T. );
#111 = FACE_BOUND( '', #173, .T. );
#112 = CONICAL_SURFACE( '', #174, 6.00000000000000, 0.785398163397450 );
#113 = SURFACE_STYLE_USAGE( .BOTH., #175 );
#114 = FACE_OUTER_BOUND( '', #176, .T. );
#115 = FACE_OUTER_BOUND( '', #177, .T. );
#116 = TOROIDAL_SURFACE( '', #178, 5.50000000000000, 0.500000000000000 );
#117 = SURFACE_STYLE_USAGE( .BOTH., #179 );
#118 = FACE_OUTER_BOUND( '', #180, .T. );
#119 = FACE_BOUND( '', #181, .T. );
#120 = CONICAL_SURFACE( '', #182, 1.62100000000000, 1.02974425867665 );
#121 = SURFACE_STYLE_USAGE( .BOTH., #183 );
#122 = FACE_OUTER_BOUND( '', #184, .T. );
#123 = FACE_OUTER_BOUND( '', #185, .T. );
#124 = CYLINDRICAL_SURFACE( '', #186, 13.0000000000000 );
#125 = SURFACE_STYLE_USAGE( .BOTH., #187 );
#126 = FACE_OUTER_BOUND( '', #188, .T. );
#127 = FACE_OUTER_BOUND( '', #189, .T. );
#128 = CYLINDRICAL_SURFACE( '', #190, 4.00000000000000 );
#129 = SURFACE_STYLE_USAGE( .BOTH., #191 );
#130 = FACE_BOUND( '', #192, .T. );
#131 = FACE_OUTER_BOUND( '', #193, .T. );
#132 = PLANE( '', #194 );
#133 = SURFACE_STYLE_USAGE( .BOTH., #195 );
#134 = FACE_BOUND( '', #196, .T. );
#135 = FACE_OUTER_BOUND( '', #197, .T. );
#136 = CONICAL_SURFACE( '', #198, 2.12100000000000, 0.785398163397448 );
#137 = PRODUCT_CONTEXT( '', #24, 'mechanical' );
#138 = PRODUCT_DEFINITION_FORMATION_WITH_SPECIFIED_SOURCE( ' ', 'NONE', #65, .NOT_KNOWN. );
#139 = CLOSED_SHELL( '', ( #60, #38, #56, #64, #42, #62, #50, #46, #48, #54, #58, #40, #44, #52 ) );
#140 = CARTESIAN_POINT( '', ( 0.000000000000000, 0.000000000000000, 0.000000000000000 ) );
#141 = DIRECTION( '', ( 0.000000000000000, 0.000000000000000, 1.00000000000000 ) );
#142 = DIRECTION( '', ( 1.00000000000000, 0.000000000000000, 0.000000000000000 ) );
#143 =  ( LENGTH_UNIT(  )NAMED_UNIT( #74 )SI_UNIT( .MILLI., .METRE. ) );
#144 = SURFACE_SIDE_STYLE( '', ( #200 ) );
#145 = EDGE_LOOP( '', ( #201 ) );
#146 = EDGE_LOOP( '', ( #202 ) );
#147 = AXIS2_PLACEMENT_3D( '', #203, #204, #205 );
#148 = SURFACE_SIDE_STYLE( '', ( #206 ) );
#149 = EDGE_LOOP( '', ( #207 ) );
#150 = EDGE_LOOP( '', ( #208 ) );
#151 = AXIS2_PLACEMENT_3D( '', #209, #210, #211 );
#152 = SURFACE_SIDE_STYLE( '', ( #212 ) );
#153 = EDGE_LOOP( '', ( #213 ) );
#154 = EDGE_LOOP( '', ( #214 ) );
#155 = AXIS2_PLACEMENT_3D( '', #215, #216, #217 );
#156 = SURFACE_SIDE_STYLE( '', ( #218 ) );
#157 = EDGE_LOOP( '', ( #219 ) );
#158 = EDGE_LOOP( '', ( #220 ) );
#159 = AXIS2_PLACEMENT_3D( '', #221, #222, #223 );
#160 = SURFACE_SIDE_STYLE( '', ( #224 ) );
#161 = EDGE_LOOP( '', ( #225 ) );
#162 = EDGE_LOOP( '', ( #226 ) );
#163 = AXIS2_PLACEMENT_3D( '', #227, #228, #229 );
#164 = SURFACE_SIDE_STYLE( '', ( #230 ) );
#165 = EDGE_LOOP( '', ( #231 ) );
#166 = AXIS2_PLACEMENT_3D( '', #232, #233, #234 );
#167 = SURFACE_SIDE_STYLE( '', ( #235 ) );
#168 = EDGE_LOOP( '', ( #236 ) );
#169 = EDGE_LOOP( '', ( #237 ) );
#170 = AXIS2_PLACEMENT_3D( '', #238, #239, #240 );
#171 = SURFACE_SIDE_STYLE( '', ( #241 ) );
#172 = EDGE_LOOP( '', ( #242 ) );
#173 = EDGE_LOOP( '', ( #243 ) );
#174 = AXIS2_PLACEMENT_3D( '', #244, #245, #246 );
#175 = SURFACE_SIDE_STYLE( '', ( #247 ) );
#176 = EDGE_LOOP( '', ( #248 ) );
#177 = EDGE_LOOP( '', ( #249 ) );
#178 = AXIS2_PLACEMENT_3D( '', #250, #251, #252 );
#179 = SURFACE_SIDE_STYLE( '', ( #253 ) );
#180 = EDGE_LOOP( '', ( #254 ) );
#181 = VERTEX_LOOP( '', #255 );
#182 = AXIS2_PLACEMENT_3D( '', #256, #257, #258 );
#183 = SURFACE_SIDE_STYLE( '', ( #259 ) );
#184 = EDGE_LOOP( '', ( #260 ) );
#185 = EDGE_LOOP( '', ( #261 ) );
#186 = AXIS2_PLACEMENT_3D( '', #262, #263, #264 );
#187 = SURFACE_SIDE_STYLE( '', ( #265 ) );
#188 = EDGE_LOOP( '', ( #266 ) );
#189 = EDGE_LOOP( '', ( #267 ) );
#190 = AXIS2_PLACEMENT_3D( '', #268, #269, #270 );
#191 = SURFACE_SIDE_STYLE( '', ( #271 ) );
#192 = EDGE_LOOP( '', ( #272 ) );
#193 = EDGE_LOOP( '', ( #273 ) );
#194 = AXIS2_PLACEMENT_3D( '', #274, #275, #276 );
#195 = SURFACE_SIDE_STYLE( '', ( #277 ) );
#196 = EDGE_LOOP( '', ( #278 ) );
#197 = EDGE_LOOP( '', ( #279 ) );
#198 = AXIS2_PLACEMENT_3D( '', #280, #281, #282 );
#200 = SURFACE_STYLE_FILL_AREA( #283 );
#201 = ORIENTED_EDGE( '', *, *, #284, .F. );
#202 = ORIENTED_EDGE( '', *, *, #285, .F. );
#203 = CARTESIAN_POINT( '', ( 0.000000000000000, 0.000000000000000, 14.7667724561447 ) );
#204 = DIRECTION( '', ( 0.000000000000000, 0.000000000000000, -1.00000000000000 ) );
#205 = DIRECTION( '', ( -1.00000000000000, 0.000000000000000, 0.000000000000000 ) );
#206 = SURFACE_STYLE_FILL_AREA( #286 );
#207 = ORIENTED_EDGE( '', *, *, #287, .F. );
#208 = ORIENTED_EDGE( '', *, *, #288, .T. );
#209 = CARTESIAN_POINT( '', ( 0.000000000000000, 0.000000000000000, 12.5000000000000 ) );
#210 = DIRECTION( '', ( -0.000000000000000, -0.000000000000000, 1.00000000000000 ) );
#211 = DIRECTION( '', ( 1.00000000000000, 0.000000000000000, 0.000000000000000 ) );
#212 = SURFACE_STYLE_FILL_AREA( #289 );
#213 = ORIENTED_EDGE( '', *, *, #290, .T. );
#214 = ORIENTED_EDGE( '', *, *, #291, .T. );
#215 = CARTESIAN_POINT( '', ( 2.77555756156268E-018, -2.77555756156268E-018, 0.0500000000000000 ) );
#216 = DIRECTION( '', ( -0.000000000000000, 0.000000000000000, -1.00000000000000 ) );
#217 = DIRECTION( '', ( 0.000000000000000, 1.00000000000000, 0.000000000000000 ) );
#218 = SURFACE_STYLE_FILL_AREA( #292 );
#219 = ORIENTED_EDGE( '', *, *, #288, .F. );
#220 = ORIENTED_EDGE( '', *, *, #293, .T. );
#221 = CARTESIAN_POINT( '', ( 9.50000000000000, 0.000000000000000, 12.5000000000000 ) );
#222 = DIRECTION( '', ( 0.000000000000000, 0.000000000000000, 1.00000000000000 ) );
#223 = DIRECTION( '', ( 1.00000000000000, 0.000000000000000, 0.000000000000000 ) );
#224 = SURFACE_STYLE_FILL_AREA( #294 );
#225 = ORIENTED_EDGE( '', *, *, #295, .T. );
#226 = ORIENTED_EDGE( '', *, *, #296, .F. );
#227 = CARTESIAN_POINT( '', ( 0.000000000000000, 0.000000000000000, 57.1500000000000 ) );
#228 = DIRECTION( '', ( -0.000000000000000, -0.000000000000000, -1.00000000000000 ) );
#229 = DIRECTION( '', ( 1.00000000000000, 0.000000000000000, 0.000000000000000 ) );
#230 = SURFACE_STYLE_FILL_AREA( #297 );
#231 = ORIENTED_EDGE( '', *, *, #285, .T. );
#232 = CARTESIAN_POINT( '', ( 7.34788079488412E-015, 0.000000000000000, -43.0000000000000 ) );
#233 = DIRECTION( '', ( 0.000000000000000, 0.000000000000000, 1.00000000000000 ) );
#234 = DIRECTION( '', ( 1.00000000000000, 0.000000000000000, 0.000000000000000 ) );
#235 = SURFACE_STYLE_FILL_AREA( #298 );
#236 = ORIENTED_EDGE( '', *, *, #299, .T. );
#237 = ORIENTED_EDGE( '', *, *, #300, .T. );
#238 = CARTESIAN_POINT( '', ( 3.32560751829449E-015, 0.000000000000000, 0.000000000000000 ) );
#239 = DIRECTION( '', ( 0.000000000000000, 0.000000000000000, 1.00000000000000 ) );
#240 = DIRECTION( '', ( 1.00000000000000, 0.000000000000000, 0.000000000000000 ) );
#241 = SURFACE_STYLE_FILL_AREA( #301 );
#242 = ORIENTED_EDGE( '', *, *, #293, .F. );
#243 = ORIENTED_EDGE( '', *, *, #296, .T. );
#244 = CARTESIAN_POINT( '', ( 0.000000000000000, 0.000000000000000, 9.00000000000000 ) );
#245 = DIRECTION( '', ( -0.000000000000000, -0.000000000000000, 1.00000000000000 ) );
#246 = DIRECTION( '', ( 1.00000000000000, 0.000000000000000, 0.000000000000000 ) );
#247 = SURFACE_STYLE_FILL_AREA( #302 );
#248 = ORIENTED_EDGE( '', *, *, #299, .F. );
#249 = ORIENTED_EDGE( '', *, *, #295, .F. );
#250 = CARTESIAN_POINT( '', ( 0.000000000000000, 0.000000000000000, 0.500000000000000 ) );
#251 = DIRECTION( '', ( 0.000000000000000, 0.000000000000000, 1.00000000000000 ) );
#252 = DIRECTION( '', ( 1.00000000000000, 0.000000000000000, 0.000000000000000 ) );
#253 = SURFACE_STYLE_FILL_AREA( #303 );
#254 = ORIENTED_EDGE( '', *, *, #291, .F. );
#255 = VERTEX_POINT( '', #304 );
#256 = CARTESIAN_POINT( '', ( 2.77555756156268E-018, -2.77555756156268E-018, 9.57600493655632 ) );
#257 = DIRECTION( '', ( 0.000000000000000, -0.000000000000000, -1.00000000000000 ) );
#258 = DIRECTION( '', ( 0.000000000000000, -1.00000000000000, 0.000000000000000 ) );
#259 = SURFACE_STYLE_FILL_AREA( #305 );
#260 = ORIENTED_EDGE( '', *, *, #284, .T. );
#261 = ORIENTED_EDGE( '', *, *, #287, .T. );
#262 = CARTESIAN_POINT( '', ( 0.000000000000000, 0.000000000000000, 57.1500000000000 ) );
#263 = DIRECTION( '', ( -0.000000000000000, -0.000000000000000, -1.00000000000000 ) );
#264 = DIRECTION( '', ( 1.00000000000000, 0.000000000000000, 0.000000000000000 ) );
#265 = SURFACE_STYLE_FILL_AREA( #306 );
#266 = ORIENTED_EDGE( '', *, *, #300, .F. );
#267 = ORIENTED_EDGE( '', *, *, #307, .T. );
#268 = CARTESIAN_POINT( '', ( 0.000000000000000, 0.000000000000000, 57.1500000000000 ) );
#269 = DIRECTION( '', ( -0.000000000000000, -0.000000000000000, -1.00000000000000 ) );
#270 = DIRECTION( '', ( 1.00000000000000, 0.000000000000000, 0.000000000000000 ) );
#271 = SURFACE_STYLE_FILL_AREA( #308 );
#272 = ORIENTED_EDGE( '', *, *, #309, .T. );
#273 = ORIENTED_EDGE( '', *, *, #307, .F. );
#274 = CARTESIAN_POINT( '', ( 2.77555756156292E-018, 3.79193204613771E-015, 0.0500000000000000 ) );
#275 = DIRECTION( '', ( 0.000000000000000, 0.000000000000000, 1.00000000000000 ) );
#276 = DIRECTION( '', ( 1.00000000000000, 0.000000000000000, 0.000000000000000 ) );
#277 = SURFACE_STYLE_FILL_AREA( #310 );
#278 = ORIENTED_EDGE( '', *, *, #290, .F. );
#279 = ORIENTED_EDGE( '', *, *, #309, .F. );
#280 = CARTESIAN_POINT( '', ( 2.77555756156268E-018, -2.77555756156268E-018, 0.0500000000000000 ) );
#281 = DIRECTION( '', ( -0.000000000000000, 0.000000000000000, -1.00000000000000 ) );
#282 = DIRECTION( '', ( -1.00000000000000, 0.000000000000000, 0.000000000000000 ) );
#283 = FILL_AREA_STYLE( '', ( #311 ) );
#284 = EDGE_CURVE( '', #312, #312, #313, .T. );
#285 = EDGE_CURVE( '', #314, #314, #315, .F. );
#286 = FILL_AREA_STYLE( '', ( #316 ) );
#287 = EDGE_CURVE( '', #317, #317, #318, .T. );
#288 = EDGE_CURVE( '', #319, #319, #320, .T. );
#289 = FILL_AREA_STYLE( '', ( #321 ) );
#290 = EDGE_CURVE( '', #322, #322, #323, .F. );
#291 = EDGE_CURVE( '', #324, #324, #325, .T. );
#292 = FILL_AREA_STYLE( '', ( #326 ) );
#293 = EDGE_CURVE( '', #327, #327, #328, .T. );
#294 = FILL_AREA_STYLE( '', ( #329 ) );
#295 = EDGE_CURVE( '', #330, #330, #331, .T. );
#296 = EDGE_CURVE( '', #332, #332, #333, .T. );
#297 = FILL_AREA_STYLE( '', ( #334 ) );
#298 = FILL_AREA_STYLE( '', ( #335 ) );
#299 = EDGE_CURVE( '', #336, #336, #337, .F. );
#300 = EDGE_CURVE( '', #338, #338, #339, .T. );
#301 = FILL_AREA_STYLE( '', ( #340 ) );
#302 = FILL_AREA_STYLE( '', ( #341 ) );
#303 = FILL_AREA_STYLE( '', ( #342 ) );
#304 = CARTESIAN_POINT( '', ( 2.77555756156268E-018, -2.77555756156268E-018, 10.5500000000000 ) );
#305 = FILL_AREA_STYLE( '', ( #343 ) );
#306 = FILL_AREA_STYLE( '', ( #344 ) );
#307 = EDGE_CURVE( '', #345, #345, #346, .T. );
#308 = FILL_AREA_STYLE( '', ( #347 ) );
#309 = EDGE_CURVE( '', #348, #348, #349, .T. );
#310 = FILL_AREA_STYLE( '', ( #350 ) );
#311 = FILL_AREA_STYLE_COLOUR( '', #351 );
#312 = VERTEX_POINT( '', #352 );
#313 = CIRCLE( '', #353, 13.0000000000000 );
#314 = VERTEX_POINT( '', #354 );
#315 = CIRCLE( '', #355, 12.2033898305085 );
#316 = FILL_AREA_STYLE_COLOUR( '', #356 );
#317 = VERTEX_POINT( '', #357 );
#318 = CIRCLE( '', #358, 13.0000000000000 );
#319 = VERTEX_POINT( '', #359 );
#320 = CIRCLE( '', #360, 11.5000000000000 );
#321 = FILL_AREA_STYLE_COLOUR( '', #361 );
#322 = VERTEX_POINT( '', #362 );
#323 = CIRCLE( '', #363, 1.62100000000000 );
#324 = VERTEX_POINT( '', #364 );
#325 = CIRCLE( '', #365, 1.62100000000000 );
#326 = FILL_AREA_STYLE_COLOUR( '', #366 );
#327 = VERTEX_POINT( '', #367 );
#328 = CIRCLE( '', #368, 9.50000000000000 );
#329 = FILL_AREA_STYLE_COLOUR( '', #369 );
#330 = VERTEX_POINT( '', #370 );
#331 = CIRCLE( '', #371, 6.00000000000000 );
#332 = VERTEX_POINT( '', #372 );
#333 = CIRCLE( '', #373, 6.00000000000000 );
#334 = FILL_AREA_STYLE_COLOUR( '', #374 );
#335 = FILL_AREA_STYLE_COLOUR( '', #375 );
#336 = VERTEX_POINT( '', #376 );
#337 = CIRCLE( '', #377, 5.50000000000000 );
#338 = VERTEX_POINT( '', #378 );
#339 = CIRCLE( '', #379, 4.00000000000000 );
#340 = FILL_AREA_STYLE_COLOUR( '', #380 );
#341 = FILL_AREA_STYLE_COLOUR( '', #381 );
#342 = FILL_AREA_STYLE_COLOUR( '', #382 );
#343 = FILL_AREA_STYLE_COLOUR( '', #383 );
#344 = FILL_AREA_STYLE_COLOUR( '', #384 );
#345 = VERTEX_POINT( '', #385 );
#346 = CIRCLE( '', #386, 4.00000000000000 );
#347 = FILL_AREA_STYLE_COLOUR( '', #387 );
#348 = VERTEX_POINT( '', #388 );
#349 = CIRCLE( '', #389, 2.12100000000000 );
#350 = FILL_AREA_STYLE_COLOUR( '', #390 );
#351 = COLOUR_RGB( '', 0.200000002980232, 0.200000002980232, 0.200000002980232 );
#352 = CARTESIAN_POINT( '', ( -13.0000000000000, 0.000000000000000, 14.7667724561447 ) );
#353 = AXIS2_PLACEMENT_3D( '', #391, #392, #393 );
#354 = CARTESIAN_POINT( '', ( -12.2033898305085, 0.000000000000000, 15.7458702943844 ) );
#355 = AXIS2_PLACEMENT_3D( '', #394, #395, #396 );
#356 = COLOUR_RGB( '', 0.200000002980232, 0.200000002980232, 0.200000002980232 );
#357 = CARTESIAN_POINT( '', ( 13.0000000000000, 0.000000000000000, 14.0000000000000 ) );
#358 = AXIS2_PLACEMENT_3D( '', #397, #398, #399 );
#359 = CARTESIAN_POINT( '', ( 11.5000000000000, 0.000000000000000, 12.5000000000000 ) );
#360 = AXIS2_PLACEMENT_3D( '', #400, #401, #402 );
#361 = COLOUR_RGB( '', 0.752941191196442, 0.752941191196442, 0.752941191196442 );
#362 = CARTESIAN_POINT( '', ( 1.62100000000000, -2.77555756156268E-018, 0.550000000000000 ) );
#363 = AXIS2_PLACEMENT_3D( '', #403, #404, #405 );
#364 = CARTESIAN_POINT( '', ( 2.77555756156268E-018, -1.62100000000000, 9.57600493655632 ) );
#365 = AXIS2_PLACEMENT_3D( '', #406, #407, #408 );
#366 = COLOUR_RGB( '', 0.200000002980232, 0.200000002980232, 0.200000002980232 );
#367 = CARTESIAN_POINT( '', ( 9.50000000000000, 0.000000000000000, 12.5000000000000 ) );
#368 = AXIS2_PLACEMENT_3D( '', #409, #410, #411 );
#369 = COLOUR_RGB( '', 0.200000002980232, 0.200000002980232, 0.200000002980232 );
#370 = CARTESIAN_POINT( '', ( 6.00000000000000, 0.000000000000000, 0.500000000000000 ) );
#371 = AXIS2_PLACEMENT_3D( '', #412, #413, #414 );
#372 = CARTESIAN_POINT( '', ( 6.00000000000000, 0.000000000000000, 9.00000000000000 ) );
#373 = AXIS2_PLACEMENT_3D( '', #415, #416, #417 );
#374 = COLOUR_RGB( '', 0.200000002980232, 0.200000002980232, 0.200000002980232 );
#375 = COLOUR_RGB( '', 0.200000002980232, 0.200000002980232, 0.200000002980232 );
#376 = CARTESIAN_POINT( '', ( 5.50000000000000, 0.000000000000000, 0.000000000000000 ) );
#377 = AXIS2_PLACEMENT_3D( '', #418, #419, #420 );
#378 = CARTESIAN_POINT( '', ( 4.00000000000000, 0.000000000000000, 0.000000000000000 ) );
#379 = AXIS2_PLACEMENT_3D( '', #421, #422, #423 );
#380 = COLOUR_RGB( '', 0.200000002980232, 0.200000002980232, 0.200000002980232 );
#381 = COLOUR_RGB( '', 0.200000002980232, 0.200000002980232, 0.200000002980232 );
#382 = COLOUR_RGB( '', 0.666666686534882, 0.400000005960464, 0.133333340287209 );
#383 = COLOUR_RGB( '', 0.200000002980232, 0.200000002980232, 0.200000002980232 );
#384 = COLOUR_RGB( '', 0.200000002980232, 0.200000002980232, 0.200000002980232 );
#385 = CARTESIAN_POINT( '', ( 4.00000000000000, -2.77555756156268E-018, 0.0500000000000000 ) );
#386 = AXIS2_PLACEMENT_3D( '', #424, #425, #426 );
#387 = COLOUR_RGB( '', 0.666666686534882, 0.400000005960464, 0.133333340287209 );
#388 = CARTESIAN_POINT( '', ( 2.12100000000000, -2.77555756156268E-018, 0.0500000000000000 ) );
#389 = AXIS2_PLACEMENT_3D( '', #427, #428, #429 );
#390 = COLOUR_RGB( '', 0.666666686534882, 0.400000005960464, 0.133333340287209 );
#391 = CARTESIAN_POINT( '', ( 0.000000000000000, 0.000000000000000, 14.7667724561447 ) );
#392 = DIRECTION( '', ( 0.000000000000000, 0.000000000000000, -1.00000000000000 ) );
#393 = DIRECTION( '', ( -1.00000000000000, 0.000000000000000, 0.000000000000000 ) );
#394 = CARTESIAN_POINT( '', ( 7.34788079488412E-015, 0.000000000000000, 15.7458702943844 ) );
#395 = DIRECTION( '', ( 0.000000000000000, 0.000000000000000, -1.00000000000000 ) );
#396 = DIRECTION( '', ( -1.00000000000000, 0.000000000000000, 0.000000000000000 ) );
#397 = CARTESIAN_POINT( '', ( 0.000000000000000, 0.000000000000000, 14.0000000000000 ) );
#398 = DIRECTION( '', ( 0.000000000000000, 0.000000000000000, 1.00000000000000 ) );
#399 = DIRECTION( '', ( 1.00000000000000, 0.000000000000000, 0.000000000000000 ) );
#400 = CARTESIAN_POINT( '', ( 0.000000000000000, 0.000000000000000, 12.5000000000000 ) );
#401 = DIRECTION( '', ( 0.000000000000000, 0.000000000000000, 1.00000000000000 ) );
#402 = DIRECTION( '', ( 1.00000000000000, 0.000000000000000, 0.000000000000000 ) );
#403 = CARTESIAN_POINT( '', ( 2.77555756156268E-018, -2.77555756156268E-018, 0.550000000000000 ) );
#404 = DIRECTION( '', ( 0.000000000000000, 0.000000000000000, 1.00000000000000 ) );
#405 = DIRECTION( '', ( 1.00000000000000, 0.000000000000000, 0.000000000000000 ) );
#406 = CARTESIAN_POINT( '', ( 2.77555756156268E-018, -2.77555756156268E-018, 9.57600493655632 ) );
#407 = DIRECTION( '', ( 0.000000000000000, 0.000000000000000, 1.00000000000000 ) );
#408 = DIRECTION( '', ( 0.000000000000000, -1.00000000000000, 0.000000000000000 ) );
#409 = CARTESIAN_POINT( '', ( 0.000000000000000, 0.000000000000000, 12.5000000000000 ) );
#410 = DIRECTION( '', ( 0.000000000000000, 0.000000000000000, 1.00000000000000 ) );
#411 = DIRECTION( '', ( 1.00000000000000, 0.000000000000000, 0.000000000000000 ) );
#412 = CARTESIAN_POINT( '', ( 0.000000000000000, 0.000000000000000, 0.500000000000000 ) );
#413 = DIRECTION( '', ( 0.000000000000000, 0.000000000000000, 1.00000000000000 ) );
#414 = DIRECTION( '', ( 1.00000000000000, 0.000000000000000, 0.000000000000000 ) );
#415 = CARTESIAN_POINT( '', ( 0.000000000000000, 0.000000000000000, 9.00000000000000 ) );
#416 = DIRECTION( '', ( 0.000000000000000, 0.000000000000000, 1.00000000000000 ) );
#417 = DIRECTION( '', ( 1.00000000000000, 0.000000000000000, 0.000000000000000 ) );
#418 = CARTESIAN_POINT( '', ( 0.000000000000000, 0.000000000000000, 0.000000000000000 ) );
#419 = DIRECTION( '', ( 0.000000000000000, 0.000000000000000, 1.00000000000000 ) );
#420 = DIRECTION( '', ( 1.00000000000000, 0.000000000000000, 0.000000000000000 ) );
#421 = CARTESIAN_POINT( '', ( 0.000000000000000, 0.000000000000000, 0.000000000000000 ) );
#422 = DIRECTION( '', ( 0.000000000000000, 0.000000000000000, 1.00000000000000 ) );
#423 = DIRECTION( '', ( 1.00000000000000, 0.000000000000000, 0.000000000000000 ) );
#424 = CARTESIAN_POINT( '', ( 2.77555756156269E-018, -2.77555756156268E-018, 0.0500000000000000 ) );
#425 = DIRECTION( '', ( 0.000000000000000, 0.000000000000000, 1.00000000000000 ) );
#426 = DIRECTION( '', ( 1.00000000000000, 0.000000000000000, 0.000000000000000 ) );
#427 = CARTESIAN_POINT( '', ( 2.77555756156268E-018, -2.77555756156268E-018, 0.0500000000000000 ) );
#428 = DIRECTION( '', ( 0.000000000000000, 0.000000000000000, 1.00000000000000 ) );
#429 = DIRECTION( '', ( 1.00000000000000, 0.000000000000000, 0.000000000000000 ) );
ENDSEC;
END-ISO-10303-21;
