ISO-10303-21;
HEADER;
FILE_DESCRIPTION( ( 'Unknown' ), '1' );
FILE_NAME( 'E:/98-Dis_3D_per_controllo/VEG/6343010_VEG50_M12/6343010_VEG50_M12.stp', 'Unknown', ( 'Unknown' ), ( 'Unknown' ), 'PSStep 11.0', 'Unknown', '  ' );
FILE_SCHEMA( ( 'AUTOMOTIVE_DESIGN { 1 0 10303 214 1 1 1 1 }' ) );
ENDSEC;
DATA;
#1 = MECHANICAL_DESIGN_GEOMETRIC_PRESENTATION_REPRESENTATION( ' ', ( #10, #11, #12, #13, #14, #15, #16, #17, #18, #19, #20, #21, #22 ), #6 );
#2 = PRODUCT_DEFINITION_CONTEXT( '', #23, 'design' );
#3 = APPLICATION_PROTOCOL_DEFINITION( 'INTERNATIONAL STANDARD', 'automotive_design', 2001, #23 );
#4 = PRODUCT_CATEGORY_RELATIONSHIP( 'NONE', 'NONE', #24, #25 );
#5 = SHAPE_DEFINITION_REPRESENTATION( #26, #27 );
#6 =  ( GEOMETRIC_REPRESENTATION_CONTEXT( 3 )GLOBAL_UNCERTAINTY_ASSIGNED_CONTEXT( ( #30 ) )GLOBAL_UNIT_ASSIGNED_CONTEXT( ( #32, #33, #34 ) )REPRESENTATION_CONTEXT( 'NONE', 'WORKSPACE' ) );
#10 = STYLED_ITEM( '', ( #36 ), #37 );
#11 = STYLED_ITEM( '', ( #38 ), #39 );
#12 = STYLED_ITEM( '', ( #40 ), #41 );
#13 = STYLED_ITEM( '', ( #42 ), #43 );
#14 = STYLED_ITEM( '', ( #44 ), #45 );
#15 = STYLED_ITEM( '', ( #46 ), #47 );
#16 = STYLED_ITEM( '', ( #48 ), #49 );
#17 = STYLED_ITEM( '', ( #50 ), #51 );
#18 = STYLED_ITEM( '', ( #52 ), #53 );
#19 = STYLED_ITEM( '', ( #54 ), #55 );
#20 = STYLED_ITEM( '', ( #56 ), #57 );
#21 = STYLED_ITEM( '', ( #58 ), #59 );
#22 = STYLED_ITEM( '', ( #60 ), #61 );
#23 = APPLICATION_CONTEXT( 'core data for automotive mechanical design processes' );
#24 = PRODUCT_CATEGORY( 'part', 'NONE' );
#25 = PRODUCT_RELATED_PRODUCT_CATEGORY( 'detail', ' ', ( #62 ) );
#26 = PRODUCT_DEFINITION_SHAPE( 'NONE', 'NONE', #63 );
#27 = ADVANCED_BREP_SHAPE_REPRESENTATION( '6343010', ( #64, #65 ), #6 );
#30 = UNCERTAINTY_MEASURE_WITH_UNIT( LENGTH_MEASURE( 0.00100000000000000 ), #32, '', '' );
#32 =  ( CONVERSION_BASED_UNIT( 'MILLIMETRE', #68 )LENGTH_UNIT(  )NAMED_UNIT( #71 ) );
#33 =  ( NAMED_UNIT( #73 )PLANE_ANGLE_UNIT(  )SI_UNIT( $, .RADIAN. ) );
#34 =  ( NAMED_UNIT( #73 )SI_UNIT( $, .STERADIAN. )SOLID_ANGLE_UNIT(  ) );
#36 = PRESENTATION_STYLE_ASSIGNMENT( ( #79 ) );
#37 = ADVANCED_FACE( '', ( #80, #81 ), #82, .F. );
#38 = PRESENTATION_STYLE_ASSIGNMENT( ( #83 ) );
#39 = ADVANCED_FACE( '', ( #84, #85 ), #86, .F. );
#40 = PRESENTATION_STYLE_ASSIGNMENT( ( #87 ) );
#41 = ADVANCED_FACE( '', ( #88, #89 ), #90, .F. );
#42 = PRESENTATION_STYLE_ASSIGNMENT( ( #91 ) );
#43 = ADVANCED_FACE( '', ( #92, #93 ), #94, .F. );
#44 = PRESENTATION_STYLE_ASSIGNMENT( ( #95 ) );
#45 = ADVANCED_FACE( '', ( #96, #97 ), #98, .F. );
#46 = PRESENTATION_STYLE_ASSIGNMENT( ( #99 ) );
#47 = ADVANCED_FACE( '', ( #100, #101 ), #102, .T. );
#48 = PRESENTATION_STYLE_ASSIGNMENT( ( #103 ) );
#49 = ADVANCED_FACE( '', ( #104, #105 ), #106, .T. );
#50 = PRESENTATION_STYLE_ASSIGNMENT( ( #107 ) );
#51 = ADVANCED_FACE( '', ( #108, #109 ), #110, .F. );
#52 = PRESENTATION_STYLE_ASSIGNMENT( ( #111 ) );
#53 = ADVANCED_FACE( '', ( #112, #113 ), #114, .F. );
#54 = PRESENTATION_STYLE_ASSIGNMENT( ( #115 ) );
#55 = ADVANCED_FACE( '', ( #116, #117 ), #118, .F. );
#56 = PRESENTATION_STYLE_ASSIGNMENT( ( #119 ) );
#57 = ADVANCED_FACE( '', ( #120, #121 ), #122, .F. );
#58 = PRESENTATION_STYLE_ASSIGNMENT( ( #123 ) );
#59 = ADVANCED_FACE( '', ( #124, #125 ), #126, .T. );
#60 = PRESENTATION_STYLE_ASSIGNMENT( ( #127 ) );
#61 = ADVANCED_FACE( '', ( #128 ), #129, .T. );
#62 = PRODUCT( '6343010', '6343010', 'PART-6343010-DESC', ( #130 ) );
#63 = PRODUCT_DEFINITION( 'NONE', 'NONE', #131, #2 );
#64 = MANIFOLD_SOLID_BREP( '6343010', #132 );
#65 = AXIS2_PLACEMENT_3D( '', #133, #134, #135 );
#68 = LENGTH_MEASURE_WITH_UNIT( LENGTH_MEASURE( 1.00000000000000 ), #136 );
#71 = DIMENSIONAL_EXPONENTS( 1.00000000000000, 0.000000000000000, 0.000000000000000, 0.000000000000000, 0.000000000000000, 0.000000000000000, 0.000000000000000 );
#73 = DIMENSIONAL_EXPONENTS( 0.000000000000000, 0.000000000000000, 0.000000000000000, 0.000000000000000, 0.000000000000000, 0.000000000000000, 0.000000000000000 );
#79 = SURFACE_STYLE_USAGE( .BOTH., #137 );
#80 = FACE_BOUND( '', #138, .T. );
#81 = FACE_OUTER_BOUND( '', #139, .T. );
#82 = CONICAL_SURFACE( '', #140, 6.05300000000000, 0.785398163397448 );
#83 = SURFACE_STYLE_USAGE( .BOTH., #141 );
#84 = FACE_OUTER_BOUND( '', #142, .T. );
#85 = FACE_OUTER_BOUND( '', #143, .T. );
#86 = CYLINDRICAL_SURFACE( '', #144, 19.0000000000000 );
#87 = SURFACE_STYLE_USAGE( .BOTH., #145 );
#88 = FACE_OUTER_BOUND( '', #146, .T. );
#89 = FACE_OUTER_BOUND( '', #147, .T. );
#90 = TOROIDAL_SURFACE( '', #148, 16.0000000000000, 1.00000000000000 );
#91 = SURFACE_STYLE_USAGE( .BOTH., #149 );
#92 = FACE_OUTER_BOUND( '', #150, .T. );
#93 = FACE_BOUND( '', #151, .T. );
#94 = PLANE( '', #152 );
#95 = SURFACE_STYLE_USAGE( .BOTH., #153 );
#96 = FACE_OUTER_BOUND( '', #154, .T. );
#97 = FACE_OUTER_BOUND( '', #155, .T. );
#98 = TOROIDAL_SURFACE( '', #156, 18.0000000000000, 1.00000000000000 );
#99 = SURFACE_STYLE_USAGE( .BOTH., #157 );
#100 = FACE_OUTER_BOUND( '', #158, .T. );
#101 = FACE_OUTER_BOUND( '', #159, .T. );
#102 = TOROIDAL_SURFACE( '', #160, 14.0000000000000, 1.00000000000000 );
#103 = SURFACE_STYLE_USAGE( .BOTH., #161 );
#104 = FACE_OUTER_BOUND( '', #162, .T. );
#105 = FACE_OUTER_BOUND( '', #163, .T. );
#106 = CYLINDRICAL_SURFACE( '', #164, 15.0000000000000 );
#107 = SURFACE_STYLE_USAGE( .BOTH., #165 );
#108 = FACE_BOUND( '', #166, .T. );
#109 = FACE_OUTER_BOUND( '', #167, .T. );
#110 = PLANE( '', #168 );
#111 = SURFACE_STYLE_USAGE( .BOTH., #169 );
#112 = FACE_OUTER_BOUND( '', #170, .T. );
#113 = FACE_OUTER_BOUND( '', #171, .T. );
#114 = CYLINDRICAL_SURFACE( '', #172, 5.05300000000000 );
#115 = SURFACE_STYLE_USAGE( .BOTH., #173 );
#116 = FACE_OUTER_BOUND( '', #174, .T. );
#117 = FACE_BOUND( '', #175, .T. );
#118 = PLANE( '', #176 );
#119 = SURFACE_STYLE_USAGE( .BOTH., #177 );
#120 = FACE_OUTER_BOUND( '', #178, .T. );
#121 = FACE_BOUND( '', #179, .T. );
#122 = CONICAL_SURFACE( '', #180, 5.05300000000000, 1.02974425867665 );
#123 = SURFACE_STYLE_USAGE( .BOTH., #181 );
#124 = FACE_OUTER_BOUND( '', #182, .T. );
#125 = FACE_OUTER_BOUND( '', #183, .T. );
#126 = TOROIDAL_SURFACE( '', #184, 15.7529057675097, 9.24709423249034 );
#127 = SURFACE_STYLE_USAGE( .BOTH., #185 );
#128 = FACE_OUTER_BOUND( '', #186, .T. );
#129 = SPHERICAL_SURFACE( '', #187, 65.0000000000000 );
#130 = PRODUCT_CONTEXT( '', #23, 'mechanical' );
#131 = PRODUCT_DEFINITION_FORMATION_WITH_SPECIFIED_SOURCE( ' ', 'NONE', #62, .NOT_KNOWN. );
#132 = CLOSED_SHELL( '', ( #55, #41, #57, #37, #53, #49, #51, #45, #47, #61, #39, #59, #43 ) );
#133 = CARTESIAN_POINT( '', ( 0.000000000000000, 0.000000000000000, 0.000000000000000 ) );
#134 = DIRECTION( '', ( 0.000000000000000, 0.000000000000000, 1.00000000000000 ) );
#135 = DIRECTION( '', ( 1.00000000000000, 0.000000000000000, 0.000000000000000 ) );
#136 =  ( LENGTH_UNIT(  )NAMED_UNIT( #71 )SI_UNIT( .MILLI., .METRE. ) );
#137 = SURFACE_SIDE_STYLE( '', ( #189 ) );
#138 = EDGE_LOOP( '', ( #190 ) );
#139 = EDGE_LOOP( '', ( #191 ) );
#140 = AXIS2_PLACEMENT_3D( '', #192, #193, #194 );
#141 = SURFACE_SIDE_STYLE( '', ( #195 ) );
#142 = EDGE_LOOP( '', ( #196 ) );
#143 = EDGE_LOOP( '', ( #197 ) );
#144 = AXIS2_PLACEMENT_3D( '', #198, #199, #200 );
#145 = SURFACE_SIDE_STYLE( '', ( #201 ) );
#146 = EDGE_LOOP( '', ( #202 ) );
#147 = EDGE_LOOP( '', ( #203 ) );
#148 = AXIS2_PLACEMENT_3D( '', #204, #205, #206 );
#149 = SURFACE_SIDE_STYLE( '', ( #207 ) );
#150 = EDGE_LOOP( '', ( #208 ) );
#151 = EDGE_LOOP( '', ( #209 ) );
#152 = AXIS2_PLACEMENT_3D( '', #210, #211, #212 );
#153 = SURFACE_SIDE_STYLE( '', ( #213 ) );
#154 = EDGE_LOOP( '', ( #214 ) );
#155 = EDGE_LOOP( '', ( #215 ) );
#156 = AXIS2_PLACEMENT_3D( '', #216, #217, #218 );
#157 = SURFACE_SIDE_STYLE( '', ( #219 ) );
#158 = EDGE_LOOP( '', ( #220 ) );
#159 = EDGE_LOOP( '', ( #221 ) );
#160 = AXIS2_PLACEMENT_3D( '', #222, #223, #224 );
#161 = SURFACE_SIDE_STYLE( '', ( #225 ) );
#162 = EDGE_LOOP( '', ( #226 ) );
#163 = EDGE_LOOP( '', ( #227 ) );
#164 = AXIS2_PLACEMENT_3D( '', #228, #229, #230 );
#165 = SURFACE_SIDE_STYLE( '', ( #231 ) );
#166 = EDGE_LOOP( '', ( #232 ) );
#167 = EDGE_LOOP( '', ( #233 ) );
#168 = AXIS2_PLACEMENT_3D( '', #234, #235, #236 );
#169 = SURFACE_SIDE_STYLE( '', ( #237 ) );
#170 = EDGE_LOOP( '', ( #238 ) );
#171 = EDGE_LOOP( '', ( #239 ) );
#172 = AXIS2_PLACEMENT_3D( '', #240, #241, #242 );
#173 = SURFACE_SIDE_STYLE( '', ( #243 ) );
#174 = EDGE_LOOP( '', ( #244 ) );
#175 = EDGE_LOOP( '', ( #245 ) );
#176 = AXIS2_PLACEMENT_3D( '', #246, #247, #248 );
#177 = SURFACE_SIDE_STYLE( '', ( #249 ) );
#178 = EDGE_LOOP( '', ( #250 ) );
#179 = VERTEX_LOOP( '', #251 );
#180 = AXIS2_PLACEMENT_3D( '', #252, #253, #254 );
#181 = SURFACE_SIDE_STYLE( '', ( #255 ) );
#182 = EDGE_LOOP( '', ( #256 ) );
#183 = EDGE_LOOP( '', ( #257 ) );
#184 = AXIS2_PLACEMENT_3D( '', #258, #259, #260 );
#185 = SURFACE_SIDE_STYLE( '', ( #261 ) );
#186 = EDGE_LOOP( '', ( #262 ) );
#187 = AXIS2_PLACEMENT_3D( '', #263, #264, #265 );
#189 = SURFACE_STYLE_FILL_AREA( #266 );
#190 = ORIENTED_EDGE( '', *, *, #267, .F. );
#191 = ORIENTED_EDGE( '', *, *, #268, .F. );
#192 = CARTESIAN_POINT( '', ( -1.41623908780919E-015, 4.22009161605494E-031, 3.80112060590687E-015 ) );
#193 = DIRECTION( '', ( -8.61638546113227E-017, -1.11022302462516E-016, -1.00000000000000 ) );
#194 = DIRECTION( '', ( 1.00000000000000, 2.75984211608385E-033, -8.61638546113227E-017 ) );
#195 = SURFACE_STYLE_FILL_AREA( #269 );
#196 = ORIENTED_EDGE( '', *, *, #270, .T. );
#197 = ORIENTED_EDGE( '', *, *, #271, .F. );
#198 = CARTESIAN_POINT( '', ( 0.000000000000000, 0.000000000000000, 57.1500000000000 ) );
#199 = DIRECTION( '', ( -0.000000000000000, -0.000000000000000, -1.00000000000000 ) );
#200 = DIRECTION( '', ( 1.00000000000000, 0.000000000000000, 0.000000000000000 ) );
#201 = SURFACE_STYLE_FILL_AREA( #272 );
#202 = ORIENTED_EDGE( '', *, *, #273, .F. );
#203 = ORIENTED_EDGE( '', *, *, #274, .F. );
#204 = CARTESIAN_POINT( '', ( 0.000000000000000, 0.000000000000000, 21.0000000000000 ) );
#205 = DIRECTION( '', ( 0.000000000000000, 0.000000000000000, 1.00000000000000 ) );
#206 = DIRECTION( '', ( 1.00000000000000, 0.000000000000000, 0.000000000000000 ) );
#207 = SURFACE_STYLE_FILL_AREA( #275 );
#208 = ORIENTED_EDGE( '', *, *, #276, .F. );
#209 = ORIENTED_EDGE( '', *, *, #271, .T. );
#210 = CARTESIAN_POINT( '', ( 19.0000000000000, 0.000000000000000, 10.0000000000000 ) );
#211 = DIRECTION( '', ( 0.000000000000000, 0.000000000000000, 1.00000000000000 ) );
#212 = DIRECTION( '', ( 1.00000000000000, 0.000000000000000, 0.000000000000000 ) );
#213 = SURFACE_STYLE_FILL_AREA( #277 );
#214 = ORIENTED_EDGE( '', *, *, #278, .F. );
#215 = ORIENTED_EDGE( '', *, *, #270, .F. );
#216 = CARTESIAN_POINT( '', ( 0.000000000000000, 0.000000000000000, 21.0000000000000 ) );
#217 = DIRECTION( '', ( 0.000000000000000, 0.000000000000000, 1.00000000000000 ) );
#218 = DIRECTION( '', ( 1.00000000000000, 0.000000000000000, 0.000000000000000 ) );
#219 = SURFACE_STYLE_FILL_AREA( #279 );
#220 = ORIENTED_EDGE( '', *, *, #280, .F. );
#221 = ORIENTED_EDGE( '', *, *, #281, .F. );
#222 = CARTESIAN_POINT( '', ( 0.000000000000000, 0.000000000000000, 1.00000000000000 ) );
#223 = DIRECTION( '', ( 0.000000000000000, 0.000000000000000, 1.00000000000000 ) );
#224 = DIRECTION( '', ( 1.00000000000000, 0.000000000000000, 0.000000000000000 ) );
#225 = SURFACE_STYLE_FILL_AREA( #282 );
#226 = ORIENTED_EDGE( '', *, *, #273, .T. );
#227 = ORIENTED_EDGE( '', *, *, #281, .T. );
#228 = CARTESIAN_POINT( '', ( 0.000000000000000, 0.000000000000000, 57.1500000000000 ) );
#229 = DIRECTION( '', ( -0.000000000000000, -0.000000000000000, -1.00000000000000 ) );
#230 = DIRECTION( '', ( 1.00000000000000, 0.000000000000000, 0.000000000000000 ) );
#231 = SURFACE_STYLE_FILL_AREA( #283 );
#232 = ORIENTED_EDGE( '', *, *, #274, .T. );
#233 = ORIENTED_EDGE( '', *, *, #278, .T. );
#234 = CARTESIAN_POINT( '', ( 15.0000000000000, 0.000000000000000, 22.0000000000000 ) );
#235 = DIRECTION( '', ( 0.000000000000000, 0.000000000000000, 1.00000000000000 ) );
#236 = DIRECTION( '', ( 1.00000000000000, 0.000000000000000, 0.000000000000000 ) );
#237 = SURFACE_STYLE_FILL_AREA( #284 );
#238 = ORIENTED_EDGE( '', *, *, #267, .T. );
#239 = ORIENTED_EDGE( '', *, *, #285, .T. );
#240 = CARTESIAN_POINT( '', ( -1.41623908780919E-015, 4.22009161605494E-031, 3.80112060590687E-015 ) );
#241 = DIRECTION( '', ( -8.61638546113227E-017, -1.11022302462516E-016, -1.00000000000000 ) );
#242 = DIRECTION( '', ( 1.00000000000000, 2.75984211608385E-033, -8.61638546113227E-017 ) );
#243 = SURFACE_STYLE_FILL_AREA( #286 );
#244 = ORIENTED_EDGE( '', *, *, #280, .T. );
#245 = ORIENTED_EDGE( '', *, *, #268, .T. );
#246 = CARTESIAN_POINT( '', ( 4.22838847269346E-015, 0.000000000000000, 0.000000000000000 ) );
#247 = DIRECTION( '', ( 0.000000000000000, 0.000000000000000, 1.00000000000000 ) );
#248 = DIRECTION( '', ( 1.00000000000000, 0.000000000000000, 0.000000000000000 ) );
#249 = SURFACE_STYLE_FILL_AREA( #287 );
#250 = ORIENTED_EDGE( '', *, *, #285, .F. );
#251 = VERTEX_POINT( '', #288 );
#252 = CARTESIAN_POINT( '', ( 2.60841365095733E-016, 2.16092158523181E-015, 19.4638512920538 ) );
#253 = DIRECTION( '', ( -8.61638546113227E-017, -1.11022302462516E-016, -1.00000000000000 ) );
#254 = DIRECTION( '', ( -1.00000000000000, -2.75984211608385E-033, 8.61638546113227E-017 ) );
#255 = SURFACE_STYLE_FILL_AREA( #289 );
#256 = ORIENTED_EDGE( '', *, *, #290, .F. );
#257 = ORIENTED_EDGE( '', *, *, #276, .T. );
#258 = CARTESIAN_POINT( '', ( 0.000000000000000, 0.000000000000000, 18.5445818637551 ) );
#259 = DIRECTION( '', ( 0.000000000000000, 0.000000000000000, 1.00000000000000 ) );
#260 = DIRECTION( '', ( 1.00000000000000, 0.000000000000000, 0.000000000000000 ) );
#261 = SURFACE_STYLE_FILL_AREA( #291 );
#262 = ORIENTED_EDGE( '', *, *, #290, .T. );
#263 = CARTESIAN_POINT( '', ( 7.96020419445780E-015, 0.000000000000000, -35.0000000000000 ) );
#264 = DIRECTION( '', ( 0.000000000000000, 0.000000000000000, 1.00000000000000 ) );
#265 = DIRECTION( '', ( 1.00000000000000, 0.000000000000000, 0.000000000000000 ) );
#266 = FILL_AREA_STYLE( '', ( #292 ) );
#267 = EDGE_CURVE( '', #293, #293, #294, .F. );
#268 = EDGE_CURVE( '', #295, #295, #296, .T. );
#269 = FILL_AREA_STYLE( '', ( #297 ) );
#270 = EDGE_CURVE( '', #298, #298, #299, .T. );
#271 = EDGE_CURVE( '', #300, #300, #301, .T. );
#272 = FILL_AREA_STYLE( '', ( #302 ) );
#273 = EDGE_CURVE( '', #303, #303, #304, .F. );
#274 = EDGE_CURVE( '', #305, #305, #306, .T. );
#275 = FILL_AREA_STYLE( '', ( #307 ) );
#276 = EDGE_CURVE( '', #308, #308, #309, .T. );
#277 = FILL_AREA_STYLE( '', ( #310 ) );
#278 = EDGE_CURVE( '', #311, #311, #312, .F. );
#279 = FILL_AREA_STYLE( '', ( #313 ) );
#280 = EDGE_CURVE( '', #314, #314, #315, .F. );
#281 = EDGE_CURVE( '', #316, #316, #317, .T. );
#282 = FILL_AREA_STYLE( '', ( #318 ) );
#283 = FILL_AREA_STYLE( '', ( #319 ) );
#284 = FILL_AREA_STYLE( '', ( #320 ) );
#285 = EDGE_CURVE( '', #321, #321, #322, .T. );
#286 = FILL_AREA_STYLE( '', ( #323 ) );
#287 = FILL_AREA_STYLE( '', ( #324 ) );
#288 = CARTESIAN_POINT( '', ( 5.22447640945570E-016, 2.49800180540661E-015, 22.5000000000000 ) );
#289 = FILL_AREA_STYLE( '', ( #325 ) );
#290 = EDGE_CURVE( '', #326, #326, #327, .T. );
#291 = FILL_AREA_STYLE( '', ( #328 ) );
#292 = FILL_AREA_STYLE_COLOUR( '', #329 );
#293 = VERTEX_POINT( '', #330 );
#294 = CIRCLE( '', #331, 5.05300000000000 );
#295 = VERTEX_POINT( '', #332 );
#296 = CIRCLE( '', #333, 6.05300000000000 );
#297 = FILL_AREA_STYLE_COLOUR( '', #334 );
#298 = VERTEX_POINT( '', #335 );
#299 = CIRCLE( '', #336, 19.0000000000000 );
#300 = VERTEX_POINT( '', #337 );
#301 = CIRCLE( '', #338, 19.0000000000000 );
#302 = FILL_AREA_STYLE_COLOUR( '', #339 );
#303 = VERTEX_POINT( '', #340 );
#304 = CIRCLE( '', #341, 15.0000000000000 );
#305 = VERTEX_POINT( '', #342 );
#306 = CIRCLE( '', #343, 16.0000000000000 );
#307 = FILL_AREA_STYLE_COLOUR( '', #344 );
#308 = VERTEX_POINT( '', #345 );
#309 = CIRCLE( '', #346, 19.2882802198333 );
#310 = FILL_AREA_STYLE_COLOUR( '', #347 );
#311 = VERTEX_POINT( '', #348 );
#312 = CIRCLE( '', #349, 18.0000000000000 );
#313 = FILL_AREA_STYLE_COLOUR( '', #350 );
#314 = VERTEX_POINT( '', #351 );
#315 = CIRCLE( '', #352, 14.0000000000000 );
#316 = VERTEX_POINT( '', #353 );
#317 = CIRCLE( '', #354, 15.0000000000000 );
#318 = FILL_AREA_STYLE_COLOUR( '', #355 );
#319 = FILL_AREA_STYLE_COLOUR( '', #356 );
#320 = FILL_AREA_STYLE_COLOUR( '', #357 );
#321 = VERTEX_POINT( '', #358 );
#322 = CIRCLE( '', #359, 5.05300000000000 );
#323 = FILL_AREA_STYLE_COLOUR( '', #360 );
#324 = FILL_AREA_STYLE_COLOUR( '', #361 );
#325 = FILL_AREA_STYLE_COLOUR( '', #362 );
#326 = VERTEX_POINT( '', #363 );
#327 = CIRCLE( '', #364, 19.4392909549756 );
#328 = FILL_AREA_STYLE_COLOUR( '', #365 );
#329 = COLOUR_RGB( '', 0.666666686534882, 0.400000005960464, 0.133333340287209 );
#330 = CARTESIAN_POINT( '', ( -5.05300000000000, 1.11022302462516E-016, 0.999999999999999 ) );
#331 = AXIS2_PLACEMENT_3D( '', #366, #367, #368 );
#332 = CARTESIAN_POINT( '', ( -6.05300000000000, 2.56085866673627E-031, 2.97863442425800E-015 ) );
#333 = AXIS2_PLACEMENT_3D( '', #369, #370, #371 );
#334 = COLOUR_RGB( '', 0.200000002980232, 0.200000002980232, 0.200000002980232 );
#335 = CARTESIAN_POINT( '', ( 19.0000000000000, 0.000000000000000, 21.0000000000000 ) );
#336 = AXIS2_PLACEMENT_3D( '', #372, #373, #374 );
#337 = CARTESIAN_POINT( '', ( 19.0000000000000, 0.000000000000000, 10.0000000000000 ) );
#338 = AXIS2_PLACEMENT_3D( '', #375, #376, #377 );
#339 = COLOUR_RGB( '', 0.200000002980232, 0.200000002980232, 0.200000002980232 );
#340 = CARTESIAN_POINT( '', ( 15.0000000000000, 0.000000000000000, 21.0000000000000 ) );
#341 = AXIS2_PLACEMENT_3D( '', #378, #379, #380 );
#342 = CARTESIAN_POINT( '', ( 16.0000000000000, 0.000000000000000, 22.0000000000000 ) );
#343 = AXIS2_PLACEMENT_3D( '', #381, #382, #383 );
#344 = COLOUR_RGB( '', 0.200000002980232, 0.200000002980232, 0.200000002980232 );
#345 = CARTESIAN_POINT( '', ( 19.2882802198333, 0.000000000000000, 10.0000000000000 ) );
#346 = AXIS2_PLACEMENT_3D( '', #384, #385, #386 );
#347 = COLOUR_RGB( '', 0.200000002980232, 0.200000002980232, 0.200000002980232 );
#348 = CARTESIAN_POINT( '', ( 18.0000000000000, 0.000000000000000, 22.0000000000000 ) );
#349 = AXIS2_PLACEMENT_3D( '', #387, #388, #389 );
#350 = COLOUR_RGB( '', 0.200000002980232, 0.200000002980232, 0.200000002980232 );
#351 = CARTESIAN_POINT( '', ( 14.0000000000000, 0.000000000000000, 0.000000000000000 ) );
#352 = AXIS2_PLACEMENT_3D( '', #390, #391, #392 );
#353 = CARTESIAN_POINT( '', ( 15.0000000000000, 0.000000000000000, 1.00000000000000 ) );
#354 = AXIS2_PLACEMENT_3D( '', #393, #394, #395 );
#355 = COLOUR_RGB( '', 0.200000002980232, 0.200000002980232, 0.200000002980232 );
#356 = COLOUR_RGB( '', 0.200000002980232, 0.200000002980232, 0.200000002980232 );
#357 = COLOUR_RGB( '', 0.752941191196442, 0.752941191196442, 0.752941191196442 );
#358 = CARTESIAN_POINT( '', ( -5.05300000000000, 2.16092158523181E-015, 19.4638512920538 ) );
#359 = AXIS2_PLACEMENT_3D( '', #396, #397, #398 );
#360 = COLOUR_RGB( '', 0.752941191196442, 0.752941191196442, 0.752941191196442 );
#361 = COLOUR_RGB( '', 0.666666686534882, 0.400000005960464, 0.133333340287209 );
#362 = COLOUR_RGB( '', 0.200000002980232, 0.200000002980232, 0.200000002980232 );
#363 = CARTESIAN_POINT( '', ( 19.4392909549756, 0.000000000000000, 27.0251075546654 ) );
#364 = AXIS2_PLACEMENT_3D( '', #399, #400, #401 );
#365 = COLOUR_RGB( '', 0.200000002980232, 0.200000002980232, 0.200000002980232 );
#366 = CARTESIAN_POINT( '', ( -1.33007523319787E-015, 1.11022302462516E-016, 1.00000000000000 ) );
#367 = DIRECTION( '', ( 8.61638546113227E-017, 1.11022302462516E-016, 1.00000000000000 ) );
#368 = DIRECTION( '', ( -1.00000000000000, -2.75984211608385E-033, 8.61638546113227E-017 ) );
#369 = CARTESIAN_POINT( '', ( -1.41623908780919E-015, 4.22009161605494E-031, 3.80112060590687E-015 ) );
#370 = DIRECTION( '', ( 8.61638546113227E-017, 1.11022302462516E-016, 1.00000000000000 ) );
#371 = DIRECTION( '', ( -1.00000000000000, -2.75984211608385E-033, 8.61638546113227E-017 ) );
#372 = CARTESIAN_POINT( '', ( 0.000000000000000, 0.000000000000000, 21.0000000000000 ) );
#373 = DIRECTION( '', ( 0.000000000000000, 0.000000000000000, 1.00000000000000 ) );
#374 = DIRECTION( '', ( 1.00000000000000, 0.000000000000000, 0.000000000000000 ) );
#375 = CARTESIAN_POINT( '', ( 0.000000000000000, 0.000000000000000, 10.0000000000000 ) );
#376 = DIRECTION( '', ( 0.000000000000000, 0.000000000000000, 1.00000000000000 ) );
#377 = DIRECTION( '', ( 1.00000000000000, 0.000000000000000, 0.000000000000000 ) );
#378 = CARTESIAN_POINT( '', ( 0.000000000000000, 0.000000000000000, 21.0000000000000 ) );
#379 = DIRECTION( '', ( 0.000000000000000, 0.000000000000000, 1.00000000000000 ) );
#380 = DIRECTION( '', ( 1.00000000000000, 0.000000000000000, 0.000000000000000 ) );
#381 = CARTESIAN_POINT( '', ( 0.000000000000000, 0.000000000000000, 22.0000000000000 ) );
#382 = DIRECTION( '', ( 0.000000000000000, 0.000000000000000, 1.00000000000000 ) );
#383 = DIRECTION( '', ( 1.00000000000000, 0.000000000000000, 0.000000000000000 ) );
#384 = CARTESIAN_POINT( '', ( 0.000000000000000, 0.000000000000000, 10.0000000000000 ) );
#385 = DIRECTION( '', ( 0.000000000000000, 0.000000000000000, 1.00000000000000 ) );
#386 = DIRECTION( '', ( 1.00000000000000, 0.000000000000000, 0.000000000000000 ) );
#387 = CARTESIAN_POINT( '', ( 0.000000000000000, 0.000000000000000, 22.0000000000000 ) );
#388 = DIRECTION( '', ( 0.000000000000000, 0.000000000000000, 1.00000000000000 ) );
#389 = DIRECTION( '', ( 1.00000000000000, 0.000000000000000, 0.000000000000000 ) );
#390 = CARTESIAN_POINT( '', ( 0.000000000000000, 0.000000000000000, 0.000000000000000 ) );
#391 = DIRECTION( '', ( 0.000000000000000, 0.000000000000000, 1.00000000000000 ) );
#392 = DIRECTION( '', ( 1.00000000000000, 0.000000000000000, 0.000000000000000 ) );
#393 = CARTESIAN_POINT( '', ( 0.000000000000000, 0.000000000000000, 1.00000000000000 ) );
#394 = DIRECTION( '', ( 0.000000000000000, 0.000000000000000, 1.00000000000000 ) );
#395 = DIRECTION( '', ( 1.00000000000000, 0.000000000000000, 0.000000000000000 ) );
#396 = CARTESIAN_POINT( '', ( 2.60841365095733E-016, 2.16092158523181E-015, 19.4638512920538 ) );
#397 = DIRECTION( '', ( 8.61638546113227E-017, 1.11022302462516E-016, 1.00000000000000 ) );
#398 = DIRECTION( '', ( -1.00000000000000, -2.75984211608385E-033, 8.61638546113227E-017 ) );
#399 = CARTESIAN_POINT( '', ( 0.000000000000000, 0.000000000000000, 27.0251075546654 ) );
#400 = DIRECTION( '', ( 0.000000000000000, 0.000000000000000, 1.00000000000000 ) );
#401 = DIRECTION( '', ( 1.00000000000000, 0.000000000000000, 0.000000000000000 ) );
ENDSEC;
END-ISO-10303-21;
