ISO-10303-21;
HEADER;
FILE_DESCRIPTION( ( 'Unknown' ), '1' );
FILE_NAME( '//SBS2003/HD_Usb/Disegni/10_GAMM_CD/2- Gamm_STEP/03 - MANOPOLE/03_14.1-T/6346005_T18.stp', 'Unknown', ( 'Unknown' ), ( 'Unknown' ), 'PSStep 11.0', 'Unknown', '  ' );
FILE_SCHEMA( ( 'AUTOMOTIVE_DESIGN { 1 0 10303 214 1 1 1 1 }' ) );
ENDSEC;
DATA;
#1 = MECHANICAL_DESIGN_GEOMETRIC_PRESENTATION_REPRESENTATION( ' ', ( #10, #11, #12, #13, #14, #15, #16, #17 ), #6 );
#2 = PRODUCT_DEFINITION_CONTEXT( '', #18, 'design' );
#3 = APPLICATION_PROTOCOL_DEFINITION( 'INTERNATIONAL STANDARD', 'automotive_design', 2001, #18 );
#4 = PRODUCT_CATEGORY_RELATIONSHIP( 'NONE', 'NONE', #19, #20 );
#5 = SHAPE_DEFINITION_REPRESENTATION( #21, #22 );
#6 =  ( GEOMETRIC_REPRESENTATION_CONTEXT( 3 )GLOBAL_UNCERTAINTY_ASSIGNED_CONTEXT( ( #25 ) )GLOBAL_UNIT_ASSIGNED_CONTEXT( ( #27, #28, #29 ) )REPRESENTATION_CONTEXT( 'NONE', 'WORKSPACE' ) );
#10 = STYLED_ITEM( '', ( #31 ), #32 );
#11 = STYLED_ITEM( '', ( #33 ), #34 );
#12 = STYLED_ITEM( '', ( #35 ), #36 );
#13 = STYLED_ITEM( '', ( #37 ), #38 );
#14 = STYLED_ITEM( '', ( #39 ), #40 );
#15 = STYLED_ITEM( '', ( #41 ), #42 );
#16 = STYLED_ITEM( '', ( #43 ), #44 );
#17 = STYLED_ITEM( '', ( #45 ), #46 );
#18 = APPLICATION_CONTEXT( 'core data for automotive mechanical design processes' );
#19 = PRODUCT_CATEGORY( 'part', 'NONE' );
#20 = PRODUCT_RELATED_PRODUCT_CATEGORY( 'detail', ' ', ( #47 ) );
#21 = PRODUCT_DEFINITION_SHAPE( 'NONE', 'NONE', #48 );
#22 = ADVANCED_BREP_SHAPE_REPRESENTATION( '1', ( #49, #50 ), #6 );
#25 = UNCERTAINTY_MEASURE_WITH_UNIT( LENGTH_MEASURE( 0.00100000000000000 ), #27, '', '' );
#27 =  ( CONVERSION_BASED_UNIT( 'MILLIMETRE', #53 )LENGTH_UNIT(  )NAMED_UNIT( #56 ) );
#28 =  ( NAMED_UNIT( #58 )PLANE_ANGLE_UNIT(  )SI_UNIT( $, .RADIAN. ) );
#29 =  ( NAMED_UNIT( #58 )SI_UNIT( $, .STERADIAN. )SOLID_ANGLE_UNIT(  ) );
#31 = PRESENTATION_STYLE_ASSIGNMENT( ( #64 ) );
#32 = ADVANCED_FACE( '', ( #65, #66 ), #67, .F. );
#33 = PRESENTATION_STYLE_ASSIGNMENT( ( #68 ) );
#34 = ADVANCED_FACE( '', ( #69, #70 ), #71, .F. );
#35 = PRESENTATION_STYLE_ASSIGNMENT( ( #72 ) );
#36 = ADVANCED_FACE( '', ( #73 ), #74, .T. );
#37 = PRESENTATION_STYLE_ASSIGNMENT( ( #75 ) );
#38 = ADVANCED_FACE( '', ( #76, #77 ), #78, .F. );
#39 = PRESENTATION_STYLE_ASSIGNMENT( ( #79 ) );
#40 = ADVANCED_FACE( '', ( #80 ), #81, .T. );
#41 = PRESENTATION_STYLE_ASSIGNMENT( ( #82 ) );
#42 = ADVANCED_FACE( '', ( #83, #84 ), #85, .T. );
#43 = PRESENTATION_STYLE_ASSIGNMENT( ( #86 ) );
#44 = ADVANCED_FACE( '', ( #87, #88 ), #89, .T. );
#45 = PRESENTATION_STYLE_ASSIGNMENT( ( #90 ) );
#46 = ADVANCED_FACE( '', ( #91, #92 ), #93, .T. );
#47 = PRODUCT( '1', '1', 'PART-1-DESC', ( #94 ) );
#48 = PRODUCT_DEFINITION( 'NONE', 'NONE', #95, #2 );
#49 = MANIFOLD_SOLID_BREP( '1', #96 );
#50 = AXIS2_PLACEMENT_3D( '', #97, #98, #99 );
#53 = LENGTH_MEASURE_WITH_UNIT( LENGTH_MEASURE( 1.00000000000000 ), #100 );
#56 = DIMENSIONAL_EXPONENTS( 1.00000000000000, 0.000000000000000, 0.000000000000000, 0.000000000000000, 0.000000000000000, 0.000000000000000, 0.000000000000000 );
#58 = DIMENSIONAL_EXPONENTS( 0.000000000000000, 0.000000000000000, 0.000000000000000, 0.000000000000000, 0.000000000000000, 0.000000000000000, 0.000000000000000 );
#64 = SURFACE_STYLE_USAGE( .BOTH., #101 );
#65 = FACE_OUTER_BOUND( '', #102, .T. );
#66 = FACE_BOUND( '', #103, .T. );
#67 = PLANE( '', #104 );
#68 = SURFACE_STYLE_USAGE( .BOTH., #105 );
#69 = FACE_BOUND( '', #106, .T. );
#70 = FACE_OUTER_BOUND( '', #107, .T. );
#71 = CONICAL_SURFACE( '', #108, 7.50000000000000, 0.785398163397451 );
#72 = SURFACE_STYLE_USAGE( .BOTH., #109 );
#73 = FACE_OUTER_BOUND( '', #110, .T. );
#74 = SPHERICAL_SURFACE( '', #111, 41.0000000000000 );
#75 = SURFACE_STYLE_USAGE( .BOTH., #112 );
#76 = FACE_OUTER_BOUND( '', #113, .T. );
#77 = FACE_OUTER_BOUND( '', #114, .T. );
#78 = CYLINDRICAL_SURFACE( '', #115, 7.50000000000000 );
#79 = SURFACE_STYLE_USAGE( .BOTH., #116 );
#80 = FACE_OUTER_BOUND( '', #117, .T. );
#81 = PLANE( '', #118 );
#82 = SURFACE_STYLE_USAGE( .BOTH., #119 );
#83 = FACE_OUTER_BOUND( '', #120, .T. );
#84 = FACE_OUTER_BOUND( '', #121, .T. );
#85 = CYLINDRICAL_SURFACE( '', #122, 9.00000000000000 );
#86 = SURFACE_STYLE_USAGE( .BOTH., #123 );
#87 = FACE_OUTER_BOUND( '', #124, .T. );
#88 = FACE_OUTER_BOUND( '', #125, .T. );
#89 = CYLINDRICAL_SURFACE( '', #126, 9.00000000000000 );
#90 = SURFACE_STYLE_USAGE( .BOTH., #127 );
#91 = FACE_OUTER_BOUND( '', #128, .T. );
#92 = FACE_OUTER_BOUND( '', #129, .T. );
#93 = TOROIDAL_SURFACE( '', #130, 9.00000000000000, 0.250000000000000 );
#94 = PRODUCT_CONTEXT( '', #18, 'mechanical' );
#95 = PRODUCT_DEFINITION_FORMATION_WITH_SPECIFIED_SOURCE( ' ', 'NONE', #47, .NOT_KNOWN. );
#96 = CLOSED_SHELL( '', ( #32, #34, #38, #40, #42, #46, #44, #36 ) );
#97 = CARTESIAN_POINT( '', ( 0.000000000000000, 0.000000000000000, 0.000000000000000 ) );
#98 = DIRECTION( '', ( 0.000000000000000, 0.000000000000000, 1.00000000000000 ) );
#99 = DIRECTION( '', ( 1.00000000000000, 0.000000000000000, 0.000000000000000 ) );
#100 =  ( LENGTH_UNIT(  )NAMED_UNIT( #56 )SI_UNIT( .MILLI., .METRE. ) );
#101 = SURFACE_SIDE_STYLE( '', ( #132 ) );
#102 = EDGE_LOOP( '', ( #133 ) );
#103 = EDGE_LOOP( '', ( #134 ) );
#104 = AXIS2_PLACEMENT_3D( '', #135, #136, #137 );
#105 = SURFACE_SIDE_STYLE( '', ( #138 ) );
#106 = EDGE_LOOP( '', ( #139 ) );
#107 = EDGE_LOOP( '', ( #140 ) );
#108 = AXIS2_PLACEMENT_3D( '', #141, #142, #143 );
#109 = SURFACE_SIDE_STYLE( '', ( #144 ) );
#110 = EDGE_LOOP( '', ( #145 ) );
#111 = AXIS2_PLACEMENT_3D( '', #146, #147, #148 );
#112 = SURFACE_SIDE_STYLE( '', ( #149 ) );
#113 = EDGE_LOOP( '', ( #150 ) );
#114 = EDGE_LOOP( '', ( #151 ) );
#115 = AXIS2_PLACEMENT_3D( '', #152, #153, #154 );
#116 = SURFACE_SIDE_STYLE( '', ( #155 ) );
#117 = EDGE_LOOP( '', ( #156 ) );
#118 = AXIS2_PLACEMENT_3D( '', #157, #158, #159 );
#119 = SURFACE_SIDE_STYLE( '', ( #160 ) );
#120 = EDGE_LOOP( '', ( #161 ) );
#121 = EDGE_LOOP( '', ( #162 ) );
#122 = AXIS2_PLACEMENT_3D( '', #163, #164, #165 );
#123 = SURFACE_SIDE_STYLE( '', ( #166 ) );
#124 = EDGE_LOOP( '', ( #167 ) );
#125 = EDGE_LOOP( '', ( #168 ) );
#126 = AXIS2_PLACEMENT_3D( '', #169, #170, #171 );
#127 = SURFACE_SIDE_STYLE( '', ( #172 ) );
#128 = EDGE_LOOP( '', ( #173 ) );
#129 = EDGE_LOOP( '', ( #174 ) );
#130 = AXIS2_PLACEMENT_3D( '', #175, #176, #177 );
#132 = SURFACE_STYLE_FILL_AREA( #178 );
#133 = ORIENTED_EDGE( '', *, *, #179, .F. );
#134 = ORIENTED_EDGE( '', *, *, #180, .T. );
#135 = CARTESIAN_POINT( '', ( 5.54807555221271E-016, 0.000000000000000, 0.000000000000000 ) );
#136 = DIRECTION( '', ( 0.000000000000000, 0.000000000000000, 1.00000000000000 ) );
#137 = DIRECTION( '', ( 1.00000000000000, 0.000000000000000, 0.000000000000000 ) );
#138 = SURFACE_STYLE_FILL_AREA( #181 );
#139 = ORIENTED_EDGE( '', *, *, #182, .F. );
#140 = ORIENTED_EDGE( '', *, *, #183, .F. );
#141 = CARTESIAN_POINT( '', ( 0.000000000000000, 0.000000000000000, 3.00000000000000 ) );
#142 = DIRECTION( '', ( -0.000000000000000, 0.000000000000000, -1.00000000000000 ) );
#143 = DIRECTION( '', ( -1.00000000000000, 0.000000000000000, 0.000000000000000 ) );
#144 = SURFACE_STYLE_FILL_AREA( #184 );
#145 = ORIENTED_EDGE( '', *, *, #185, .T. );
#146 = CARTESIAN_POINT( '', ( 4.89858719658942E-015, 0.000000000000000, -35.0000000000000 ) );
#147 = DIRECTION( '', ( 0.000000000000000, 0.000000000000000, 1.00000000000000 ) );
#148 = DIRECTION( '', ( 1.00000000000000, 0.000000000000000, 0.000000000000000 ) );
#149 = SURFACE_STYLE_FILL_AREA( #186 );
#150 = ORIENTED_EDGE( '', *, *, #183, .T. );
#151 = ORIENTED_EDGE( '', *, *, #180, .F. );
#152 = CARTESIAN_POINT( '', ( 0.000000000000000, 0.000000000000000, 57.1500000000000 ) );
#153 = DIRECTION( '', ( -0.000000000000000, -0.000000000000000, -1.00000000000000 ) );
#154 = DIRECTION( '', ( 1.00000000000000, 0.000000000000000, 0.000000000000000 ) );
#155 = SURFACE_STYLE_FILL_AREA( #187 );
#156 = ORIENTED_EDGE( '', *, *, #182, .T. );
#157 = CARTESIAN_POINT( '', ( 7.50000000000000, 0.000000000000000, 4.00000000000000 ) );
#158 = DIRECTION( '', ( 0.000000000000000, 0.000000000000000, -1.00000000000000 ) );
#159 = DIRECTION( '', ( -1.00000000000000, 0.000000000000000, 0.000000000000000 ) );
#160 = SURFACE_STYLE_FILL_AREA( #188 );
#161 = ORIENTED_EDGE( '', *, *, #179, .T. );
#162 = ORIENTED_EDGE( '', *, *, #189, .F. );
#163 = CARTESIAN_POINT( '', ( 0.000000000000000, 0.000000000000000, 57.1500000000000 ) );
#164 = DIRECTION( '', ( -0.000000000000000, -0.000000000000000, -1.00000000000000 ) );
#165 = DIRECTION( '', ( 1.00000000000000, 0.000000000000000, 0.000000000000000 ) );
#166 = SURFACE_STYLE_FILL_AREA( #190 );
#167 = ORIENTED_EDGE( '', *, *, #185, .F. );
#168 = ORIENTED_EDGE( '', *, *, #191, .F. );
#169 = CARTESIAN_POINT( '', ( 0.000000000000000, 0.000000000000000, 57.1500000000000 ) );
#170 = DIRECTION( '', ( -0.000000000000000, -0.000000000000000, -1.00000000000000 ) );
#171 = DIRECTION( '', ( 1.00000000000000, 0.000000000000000, 0.000000000000000 ) );
#172 = SURFACE_STYLE_FILL_AREA( #192 );
#173 = ORIENTED_EDGE( '', *, *, #191, .T. );
#174 = ORIENTED_EDGE( '', *, *, #189, .T. );
#175 = CARTESIAN_POINT( '', ( 0.000000000000000, 0.000000000000000, 1.50000000000000 ) );
#176 = DIRECTION( '', ( 0.000000000000000, 0.000000000000000, 1.00000000000000 ) );
#177 = DIRECTION( '', ( 1.00000000000000, 0.000000000000000, 0.000000000000000 ) );
#178 = FILL_AREA_STYLE( '', ( #193 ) );
#179 = EDGE_CURVE( '', #194, #194, #195, .T. );
#180 = EDGE_CURVE( '', #196, #196, #197, .T. );
#181 = FILL_AREA_STYLE( '', ( #198 ) );
#182 = EDGE_CURVE( '', #199, #199, #200, .T. );
#183 = EDGE_CURVE( '', #201, #201, #202, .F. );
#184 = FILL_AREA_STYLE( '', ( #203 ) );
#185 = EDGE_CURVE( '', #204, #204, #205, .T. );
#186 = FILL_AREA_STYLE( '', ( #206 ) );
#187 = FILL_AREA_STYLE( '', ( #207 ) );
#188 = FILL_AREA_STYLE( '', ( #208 ) );
#189 = EDGE_CURVE( '', #209, #209, #210, .T. );
#190 = FILL_AREA_STYLE( '', ( #211 ) );
#191 = EDGE_CURVE( '', #212, #212, #213, .T. );
#192 = FILL_AREA_STYLE( '', ( #214 ) );
#193 = FILL_AREA_STYLE_COLOUR( '', #215 );
#194 = VERTEX_POINT( '', #216 );
#195 = CIRCLE( '', #217, 9.00000000000000 );
#196 = VERTEX_POINT( '', #218 );
#197 = CIRCLE( '', #219, 7.50000000000000 );
#198 = FILL_AREA_STYLE_COLOUR( '', #220 );
#199 = VERTEX_POINT( '', #221 );
#200 = CIRCLE( '', #222, 6.50000000000000 );
#201 = VERTEX_POINT( '', #223 );
#202 = CIRCLE( '', #224, 7.50000000000000 );
#203 = FILL_AREA_STYLE_COLOUR( '', #225 );
#204 = VERTEX_POINT( '', #226 );
#205 = CIRCLE( '', #227, 9.00000000000000 );
#206 = FILL_AREA_STYLE_COLOUR( '', #228 );
#207 = FILL_AREA_STYLE_COLOUR( '', #229 );
#208 = FILL_AREA_STYLE_COLOUR( '', #230 );
#209 = VERTEX_POINT( '', #231 );
#210 = CIRCLE( '', #232, 9.00000000000000 );
#211 = FILL_AREA_STYLE_COLOUR( '', #233 );
#212 = VERTEX_POINT( '', #234 );
#213 = CIRCLE( '', #235, 9.00000000000000 );
#214 = FILL_AREA_STYLE_COLOUR( '', #236 );
#215 = COLOUR_RGB( '', 0.200000002980232, 0.200000002980232, 0.200000002980232 );
#216 = CARTESIAN_POINT( '', ( 9.00000000000000, 0.000000000000000, 0.000000000000000 ) );
#217 = AXIS2_PLACEMENT_3D( '', #237, #238, #239 );
#218 = CARTESIAN_POINT( '', ( 7.50000000000000, 0.000000000000000, 0.000000000000000 ) );
#219 = AXIS2_PLACEMENT_3D( '', #240, #241, #242 );
#220 = COLOUR_RGB( '', 0.200000002980232, 0.200000002980232, 0.200000002980232 );
#221 = CARTESIAN_POINT( '', ( -6.50000000000000, 0.000000000000000, 4.00000000000000 ) );
#222 = AXIS2_PLACEMENT_3D( '', #243, #244, #245 );
#223 = CARTESIAN_POINT( '', ( -7.50000000000000, 0.000000000000000, 3.00000000000000 ) );
#224 = AXIS2_PLACEMENT_3D( '', #246, #247, #248 );
#225 = COLOUR_RGB( '', 0.200000002980232, 0.200000002980232, 0.200000002980232 );
#226 = CARTESIAN_POINT( '', ( 9.00000000000000, 0.000000000000000, 5.00000000000000 ) );
#227 = AXIS2_PLACEMENT_3D( '', #249, #250, #251 );
#228 = COLOUR_RGB( '', 0.200000002980232, 0.200000002980232, 0.200000002980232 );
#229 = COLOUR_RGB( '', 0.200000002980232, 0.200000002980232, 0.200000002980232 );
#230 = COLOUR_RGB( '', 0.200000002980232, 0.200000002980232, 0.200000002980232 );
#231 = CARTESIAN_POINT( '', ( 9.00000000000000, 0.000000000000000, 1.25000000000000 ) );
#232 = AXIS2_PLACEMENT_3D( '', #252, #253, #254 );
#233 = COLOUR_RGB( '', 0.200000002980232, 0.200000002980232, 0.200000002980232 );
#234 = CARTESIAN_POINT( '', ( -9.00000000000000, 0.000000000000000, 1.75000000000000 ) );
#235 = AXIS2_PLACEMENT_3D( '', #255, #256, #257 );
#236 = COLOUR_RGB( '', 0.200000002980232, 0.200000002980232, 0.200000002980232 );
#237 = CARTESIAN_POINT( '', ( 0.000000000000000, 0.000000000000000, 0.000000000000000 ) );
#238 = DIRECTION( '', ( 0.000000000000000, 0.000000000000000, 1.00000000000000 ) );
#239 = DIRECTION( '', ( 1.00000000000000, 0.000000000000000, 0.000000000000000 ) );
#240 = CARTESIAN_POINT( '', ( 0.000000000000000, 0.000000000000000, 0.000000000000000 ) );
#241 = DIRECTION( '', ( 0.000000000000000, 0.000000000000000, 1.00000000000000 ) );
#242 = DIRECTION( '', ( 1.00000000000000, 0.000000000000000, 0.000000000000000 ) );
#243 = CARTESIAN_POINT( '', ( 0.000000000000000, 0.000000000000000, 4.00000000000000 ) );
#244 = DIRECTION( '', ( 0.000000000000000, 0.000000000000000, -1.00000000000000 ) );
#245 = DIRECTION( '', ( -1.00000000000000, 0.000000000000000, 0.000000000000000 ) );
#246 = CARTESIAN_POINT( '', ( 0.000000000000000, 0.000000000000000, 3.00000000000000 ) );
#247 = DIRECTION( '', ( 0.000000000000000, 0.000000000000000, -1.00000000000000 ) );
#248 = DIRECTION( '', ( -1.00000000000000, 0.000000000000000, 0.000000000000000 ) );
#249 = CARTESIAN_POINT( '', ( 0.000000000000000, 0.000000000000000, 5.00000000000000 ) );
#250 = DIRECTION( '', ( 0.000000000000000, 0.000000000000000, 1.00000000000000 ) );
#251 = DIRECTION( '', ( 1.00000000000000, 0.000000000000000, 0.000000000000000 ) );
#252 = CARTESIAN_POINT( '', ( 0.000000000000000, 0.000000000000000, 1.25000000000000 ) );
#253 = DIRECTION( '', ( 0.000000000000000, 0.000000000000000, 1.00000000000000 ) );
#254 = DIRECTION( '', ( 1.00000000000000, 0.000000000000000, 0.000000000000000 ) );
#255 = CARTESIAN_POINT( '', ( 0.000000000000000, 0.000000000000000, 1.75000000000000 ) );
#256 = DIRECTION( '', ( 0.000000000000000, 0.000000000000000, -1.00000000000000 ) );
#257 = DIRECTION( '', ( -1.00000000000000, 0.000000000000000, 0.000000000000000 ) );
ENDSEC;
END-ISO-10303-21;
