ISO-10303-21;
HEADER;
FILE_DESCRIPTION( ( 'Unknown' ), '1' );
FILE_NAME( 'C:/Users/UT02SG/Desktop/Rewind/6362250_PMA_26_10.stp', 'Unknown', ( 'Unknown' ), ( 'Unknown' ), 'PSStep 15.0.49', 'Unknown', '  ' );
FILE_SCHEMA( ( 'AUTOMOTIVE_DESIGN { 1 0 10303 214 1 1 1 1 }' ) );
ENDSEC;
DATA;
#1 = MECHANICAL_DESIGN_GEOMETRIC_PRESENTATION_REPRESENTATION( ' ', ( #10, #11, #12, #13, #14, #15, #16, #17, #18, #19, #20, #21, #22, #23, #24, #25 ), #6 );
#2 = PRODUCT_DEFINITION_CONTEXT( '', #26, 'design' );
#3 = APPLICATION_PROTOCOL_DEFINITION( 'international standard', 'automotive_design', 2001, #26 );
#4 = PRODUCT_CATEGORY_RELATIONSHIP( 'NONE', 'NONE', #27, #28 );
#5 = SHAPE_DEFINITION_REPRESENTATION( #29, #30 );
#6 =  ( GEOMETRIC_REPRESENTATION_CONTEXT( 3 )GLOBAL_UNCERTAINTY_ASSIGNED_CONTEXT( ( #33 ) )GLOBAL_UNIT_ASSIGNED_CONTEXT( ( #35, #36, #37 ) )REPRESENTATION_CONTEXT( 'NONE', 'WORKSPACE' ) );
#10 = STYLED_ITEM( '', ( #39 ), #40 );
#11 = STYLED_ITEM( '', ( #41 ), #42 );
#12 = STYLED_ITEM( '', ( #43 ), #44 );
#13 = STYLED_ITEM( '', ( #45 ), #46 );
#14 = STYLED_ITEM( '', ( #47 ), #48 );
#15 = STYLED_ITEM( '', ( #49 ), #50 );
#16 = STYLED_ITEM( '', ( #51 ), #52 );
#17 = STYLED_ITEM( '', ( #53 ), #54 );
#18 = STYLED_ITEM( '', ( #55 ), #56 );
#19 = STYLED_ITEM( '', ( #57 ), #58 );
#20 = STYLED_ITEM( '', ( #59 ), #60 );
#21 = STYLED_ITEM( '', ( #61 ), #62 );
#22 = STYLED_ITEM( '', ( #63 ), #64 );
#23 = STYLED_ITEM( '', ( #65 ), #66 );
#24 = STYLED_ITEM( '', ( #67 ), #68 );
#25 = STYLED_ITEM( '', ( #69 ), #70 );
#26 = APPLICATION_CONTEXT( 'core data for automotive mechanical design processes' );
#27 = PRODUCT_CATEGORY( 'part', 'NONE' );
#28 = PRODUCT_RELATED_PRODUCT_CATEGORY( 'detail', ' ', ( #71 ) );
#29 = PRODUCT_DEFINITION_SHAPE( 'NONE', 'NONE', #72 );
#30 = ADVANCED_BREP_SHAPE_REPRESENTATION( '1564', ( #73, #74 ), #6 );
#33 = UNCERTAINTY_MEASURE_WITH_UNIT( LENGTH_MEASURE( 0.00100000000000000 ), #35, '', '' );
#35 =  ( CONVERSION_BASED_UNIT( 'MILLIMETRE', #77 )LENGTH_UNIT(  )NAMED_UNIT( #80 ) );
#36 =  ( NAMED_UNIT( #82 )PLANE_ANGLE_UNIT(  )SI_UNIT( $, .RADIAN. ) );
#37 =  ( NAMED_UNIT( #82 )SI_UNIT( $, .STERADIAN. )SOLID_ANGLE_UNIT(  ) );
#39 = PRESENTATION_STYLE_ASSIGNMENT( ( #88 ) );
#40 = ADVANCED_FACE( '', ( #89, #90 ), #91, .T. );
#41 = PRESENTATION_STYLE_ASSIGNMENT( ( #92 ) );
#42 = ADVANCED_FACE( '', ( #93, #94 ), #95, .T. );
#43 = PRESENTATION_STYLE_ASSIGNMENT( ( #96 ) );
#44 = ADVANCED_FACE( '', ( #97, #98 ), #99, .T. );
#45 = PRESENTATION_STYLE_ASSIGNMENT( ( #100 ) );
#46 = ADVANCED_FACE( '', ( #101, #102 ), #103, .F. );
#47 = PRESENTATION_STYLE_ASSIGNMENT( ( #104 ) );
#48 = ADVANCED_FACE( '', ( #105 ), #106, .F. );
#49 = PRESENTATION_STYLE_ASSIGNMENT( ( #107 ) );
#50 = ADVANCED_FACE( '', ( #108, #109 ), #110, .F. );
#51 = PRESENTATION_STYLE_ASSIGNMENT( ( #111 ) );
#52 = ADVANCED_FACE( '', ( #112, #113 ), #114, .F. );
#53 = PRESENTATION_STYLE_ASSIGNMENT( ( #115 ) );
#54 = ADVANCED_FACE( '', ( #116 ), #117, .T. );
#55 = PRESENTATION_STYLE_ASSIGNMENT( ( #118 ) );
#56 = ADVANCED_FACE( '', ( #119, #120 ), #121, .F. );
#57 = PRESENTATION_STYLE_ASSIGNMENT( ( #122 ) );
#58 = ADVANCED_FACE( '', ( #123, #124, #125 ), #126, .T. );
#59 = PRESENTATION_STYLE_ASSIGNMENT( ( #127 ) );
#60 = ADVANCED_FACE( '', ( #128, #129 ), #130, .F. );
#61 = PRESENTATION_STYLE_ASSIGNMENT( ( #131 ) );
#62 = ADVANCED_FACE( '', ( #132 ), #133, .F. );
#63 = PRESENTATION_STYLE_ASSIGNMENT( ( #134 ) );
#64 = ADVANCED_FACE( '', ( #135, #136 ), #137, .F. );
#65 = PRESENTATION_STYLE_ASSIGNMENT( ( #138 ) );
#66 = ADVANCED_FACE( '', ( #139, #140 ), #141, .T. );
#67 = PRESENTATION_STYLE_ASSIGNMENT( ( #142 ) );
#68 = ADVANCED_FACE( '', ( #143, #144 ), #145, .T. );
#69 = PRESENTATION_STYLE_ASSIGNMENT( ( #146 ) );
#70 = ADVANCED_FACE( '', ( #147 ), #148, .T. );
#71 = PRODUCT( '1564', '1564', 'PART-1564-DESC', ( #149 ) );
#72 = PRODUCT_DEFINITION( 'NONE', 'NONE', #150, #2 );
#73 = BREP_WITH_VOIDS( '1564', #151, ( #152 ) );
#74 = AXIS2_PLACEMENT_3D( '', #153, #154, #155 );
#77 = LENGTH_MEASURE_WITH_UNIT( LENGTH_MEASURE( 1.00000000000000 ), #156 );
#80 = DIMENSIONAL_EXPONENTS( 1.00000000000000, 0.000000000000000, 0.000000000000000, 0.000000000000000, 0.000000000000000, 0.000000000000000, 0.000000000000000 );
#82 = DIMENSIONAL_EXPONENTS( 0.000000000000000, 0.000000000000000, 0.000000000000000, 0.000000000000000, 0.000000000000000, 0.000000000000000, 0.000000000000000 );
#88 = SURFACE_STYLE_USAGE( .BOTH., #157 );
#89 = FACE_OUTER_BOUND( '', #158, .T. );
#90 = FACE_BOUND( '', #159, .T. );
#91 = CONICAL_SURFACE( '', #160, 12.5039798060999, 0.00751531599185286 );
#92 = SURFACE_STYLE_USAGE( .BOTH., #161 );
#93 = FACE_OUTER_BOUND( '', #162, .T. );
#94 = FACE_OUTER_BOUND( '', #163, .T. );
#95 = TOROIDAL_SURFACE( '', #164, 9.82854852481024, 0.300000000000000 );
#96 = SURFACE_STYLE_USAGE( .BOTH., #165 );
#97 = FACE_OUTER_BOUND( '', #166, .T. );
#98 = FACE_OUTER_BOUND( '', #167, .T. );
#99 = TOROIDAL_SURFACE( '', #168, 10.3500000000000, 0.500000000000000 );
#100 = SURFACE_STYLE_USAGE( .BOTH., #169 );
#101 = FACE_OUTER_BOUND( '', #170, .T. );
#102 = FACE_OUTER_BOUND( '', #171, .T. );
#103 = TOROIDAL_SURFACE( '', #172, 8.60000000000000, 0.300000000000000 );
#104 = SURFACE_STYLE_USAGE( .BOTH., #173 );
#105 = FACE_OUTER_BOUND( '', #174, .T. );
#106 = PLANE( '', #175 );
#107 = SURFACE_STYLE_USAGE( .BOTH., #176 );
#108 = FACE_BOUND( '', #177, .T. );
#109 = FACE_OUTER_BOUND( '', #178, .T. );
#110 = PLANE( '', #179 );
#111 = SURFACE_STYLE_USAGE( .BOTH., #180 );
#112 = FACE_OUTER_BOUND( '', #181, .T. );
#113 = FACE_BOUND( '', #182, .T. );
#114 = PLANE( '', #183 );
#115 = SURFACE_STYLE_USAGE( .BOTH., #184 );
#116 = FACE_OUTER_BOUND( '', #185, .T. );
#117 = PLANE( '', #186 );
#118 = SURFACE_STYLE_USAGE( .BOTH., #187 );
#119 = FACE_OUTER_BOUND( '', #188, .T. );
#120 = FACE_OUTER_BOUND( '', #189, .T. );
#121 = CYLINDRICAL_SURFACE( '', #190, 5.00000000000000 );
#122 = SURFACE_STYLE_USAGE( .BOTH., #191 );
#123 = FACE_BOUND( '', #192, .T. );
#124 = FACE_OUTER_BOUND( '', #193, .T. );
#125 = FACE_OUTER_BOUND( '', #194, .T. );
#126 = TOROIDAL_SURFACE( '', #195, 11.9924563018648, 1.00000000000000 );
#127 = SURFACE_STYLE_USAGE( .BOTH., #196 );
#128 = FACE_OUTER_BOUND( '', #197, .T. );
#129 = FACE_OUTER_BOUND( '', #198, .T. );
#130 = CYLINDRICAL_SURFACE( '', #199, 10.3752487984418 );
#131 = SURFACE_STYLE_USAGE( .BOTH., #200 );
#132 = FACE_OUTER_BOUND( '', #201, .T. );
#133 = PLANE( '', #202 );
#134 = SURFACE_STYLE_USAGE( .BOTH., #203 );
#135 = FACE_OUTER_BOUND( '', #204, .T. );
#136 = FACE_OUTER_BOUND( '', #205, .T. );
#137 = CYLINDRICAL_SURFACE( '', #206, 8.90000000000000 );
#138 = SURFACE_STYLE_USAGE( .BOTH., #207 );
#139 = FACE_BOUND( '', #208, .T. );
#140 = FACE_OUTER_BOUND( '', #209, .T. );
#141 = CONICAL_SURFACE( '', #210, 10.1000000000000, 0.0998328332140754 );
#142 = SURFACE_STYLE_USAGE( .BOTH., #211 );
#143 = FACE_OUTER_BOUND( '', #212, .T. );
#144 = FACE_OUTER_BOUND( '', #213, .T. );
#145 = TOROIDAL_SURFACE( '', #214, 5.20000000000000, 0.200000000000000 );
#146 = SURFACE_STYLE_USAGE( .BOTH., #215 );
#147 = FACE_OUTER_BOUND( '', #216, .T. );
#148 = PLANE( '', #217 );
#149 = PRODUCT_CONTEXT( '', #26, 'mechanical' );
#150 = PRODUCT_DEFINITION_FORMATION_WITH_SPECIFIED_SOURCE( ' ', 'NONE', #71, .NOT_KNOWN. );
#151 = CLOSED_SHELL( '', ( #52, #44, #48, #56, #68, #60, #58, #50, #66, #40, #42, #62 ) );
#152 = ORIENTED_CLOSED_SHELL( '', *, #218, .T. );
#153 = CARTESIAN_POINT( '', ( 0.000000000000000, 0.000000000000000, 0.000000000000000 ) );
#154 = DIRECTION( '', ( 0.000000000000000, 0.000000000000000, 1.00000000000000 ) );
#155 = DIRECTION( '', ( 1.00000000000000, 0.000000000000000, 0.000000000000000 ) );
#156 =  ( LENGTH_UNIT(  )NAMED_UNIT( #80 )SI_UNIT( .MILLI., .METRE. ) );
#157 = SURFACE_SIDE_STYLE( '', ( #220 ) );
#158 = EDGE_LOOP( '', ( #221 ) );
#159 = EDGE_LOOP( '', ( #222 ) );
#160 = AXIS2_PLACEMENT_3D( '', #223, #224, #225 );
#161 = SURFACE_SIDE_STYLE( '', ( #226 ) );
#162 = EDGE_LOOP( '', ( #227 ) );
#163 = EDGE_LOOP( '', ( #228 ) );
#164 = AXIS2_PLACEMENT_3D( '', #229, #230, #231 );
#165 = SURFACE_SIDE_STYLE( '', ( #232 ) );
#166 = EDGE_LOOP( '', ( #233 ) );
#167 = EDGE_LOOP( '', ( #234 ) );
#168 = AXIS2_PLACEMENT_3D( '', #235, #236, #237 );
#169 = SURFACE_SIDE_STYLE( '', ( #238 ) );
#170 = EDGE_LOOP( '', ( #239 ) );
#171 = EDGE_LOOP( '', ( #240 ) );
#172 = AXIS2_PLACEMENT_3D( '', #241, #242, #243 );
#173 = SURFACE_SIDE_STYLE( '', ( #244 ) );
#174 = EDGE_LOOP( '', ( #245 ) );
#175 = AXIS2_PLACEMENT_3D( '', #246, #247, #248 );
#176 = SURFACE_SIDE_STYLE( '', ( #249 ) );
#177 = EDGE_LOOP( '', ( #250 ) );
#178 = EDGE_LOOP( '', ( #251 ) );
#179 = AXIS2_PLACEMENT_3D( '', #252, #253, #254 );
#180 = SURFACE_SIDE_STYLE( '', ( #255 ) );
#181 = EDGE_LOOP( '', ( #256 ) );
#182 = EDGE_LOOP( '', ( #257 ) );
#183 = AXIS2_PLACEMENT_3D( '', #258, #259, #260 );
#184 = SURFACE_SIDE_STYLE( '', ( #261 ) );
#185 = EDGE_LOOP( '', ( #262 ) );
#186 = AXIS2_PLACEMENT_3D( '', #263, #264, #265 );
#187 = SURFACE_SIDE_STYLE( '', ( #266 ) );
#188 = EDGE_LOOP( '', ( #267 ) );
#189 = EDGE_LOOP( '', ( #268 ) );
#190 = AXIS2_PLACEMENT_3D( '', #269, #270, #271 );
#191 = SURFACE_SIDE_STYLE( '', ( #272 ) );
#192 = VERTEX_LOOP( '', #273 );
#193 = EDGE_LOOP( '', ( #274 ) );
#194 = EDGE_LOOP( '', ( #275 ) );
#195 = AXIS2_PLACEMENT_3D( '', #276, #277, #278 );
#196 = SURFACE_SIDE_STYLE( '', ( #279 ) );
#197 = EDGE_LOOP( '', ( #280 ) );
#198 = EDGE_LOOP( '', ( #281 ) );
#199 = AXIS2_PLACEMENT_3D( '', #282, #283, #284 );
#200 = SURFACE_SIDE_STYLE( '', ( #285 ) );
#201 = EDGE_LOOP( '', ( #286 ) );
#202 = AXIS2_PLACEMENT_3D( '', #287, #288, #289 );
#203 = SURFACE_SIDE_STYLE( '', ( #290 ) );
#204 = EDGE_LOOP( '', ( #291 ) );
#205 = EDGE_LOOP( '', ( #292 ) );
#206 = AXIS2_PLACEMENT_3D( '', #293, #294, #295 );
#207 = SURFACE_SIDE_STYLE( '', ( #296 ) );
#208 = EDGE_LOOP( '', ( #297 ) );
#209 = EDGE_LOOP( '', ( #298 ) );
#210 = AXIS2_PLACEMENT_3D( '', #299, #300, #301 );
#211 = SURFACE_SIDE_STYLE( '', ( #302 ) );
#212 = EDGE_LOOP( '', ( #303 ) );
#213 = EDGE_LOOP( '', ( #304 ) );
#214 = AXIS2_PLACEMENT_3D( '', #305, #306, #307 );
#215 = SURFACE_SIDE_STYLE( '', ( #308 ) );
#216 = EDGE_LOOP( '', ( #309 ) );
#217 = AXIS2_PLACEMENT_3D( '', #310, #311, #312 );
#218 = CLOSED_SHELL( '', ( #54, #46, #64, #70 ) );
#220 = SURFACE_STYLE_FILL_AREA( #313 );
#221 = ORIENTED_EDGE( '', *, *, #314, .T. );
#222 = ORIENTED_EDGE( '', *, *, #315, .T. );
#223 = CARTESIAN_POINT( '', ( 0.000000000000000, 0.000000000000000, -66.0000000000000 ) );
#224 = DIRECTION( '', ( -0.000000000000000, -0.000000000000000, 1.00000000000000 ) );
#225 = DIRECTION( '', ( 1.00000000000000, 0.000000000000000, 0.000000000000000 ) );
#226 = SURFACE_STYLE_FILL_AREA( #316 );
#227 = ORIENTED_EDGE( '', *, *, #317, .F. );
#228 = ORIENTED_EDGE( '', *, *, #318, .F. );
#229 = CARTESIAN_POINT( '', ( 0.000000000000000, 0.000000000000000, -89.7000000000000 ) );
#230 = DIRECTION( '', ( 0.000000000000000, 0.000000000000000, 1.00000000000000 ) );
#231 = DIRECTION( '', ( 1.00000000000000, 0.000000000000000, 0.000000000000000 ) );
#232 = SURFACE_STYLE_FILL_AREA( #319 );
#233 = ORIENTED_EDGE( '', *, *, #320, .F. );
#234 = ORIENTED_EDGE( '', *, *, #321, .F. );
#235 = CARTESIAN_POINT( '', ( 4.93367761002362E-016, 4.76519954490133E-017, -0.500000000000000 ) );
#236 = DIRECTION( '', ( 2.69402393921228E-016, 9.53039908980265E-017, -1.00000000000000 ) );
#237 = DIRECTION( '', ( 1.00000000000000, -5.18250444086063E-032, 2.69402393921228E-016 ) );
#238 = SURFACE_STYLE_FILL_AREA( #322 );
#239 = ORIENTED_EDGE( '', *, *, #323, .F. );
#240 = ORIENTED_EDGE( '', *, *, #324, .F. );
#241 = CARTESIAN_POINT( '', ( 7.43259225979250E-016, 2.19199179065461E-016, -2.30000000000000 ) );
#242 = DIRECTION( '', ( 9.53039908980265E-017, 9.53039908980265E-017, -1.00000000000000 ) );
#243 = DIRECTION( '', ( 1.11022302462516E-016, 1.00000000000000, 9.53039908980265E-017 ) );
#244 = SURFACE_STYLE_FILL_AREA( #325 );
#245 = ORIENTED_EDGE( '', *, *, #326, .T. );
#246 = CARTESIAN_POINT( '', ( 0.000000000000000, 0.000000000000000, -70.0000000000000 ) );
#247 = DIRECTION( '', ( 0.000000000000000, 0.000000000000000, 1.00000000000000 ) );
#248 = DIRECTION( '', ( 1.00000000000000, 0.000000000000000, 0.000000000000000 ) );
#249 = SURFACE_STYLE_FILL_AREA( #327 );
#250 = ORIENTED_EDGE( '', *, *, #328, .T. );
#251 = ORIENTED_EDGE( '', *, *, #317, .T. );
#252 = CARTESIAN_POINT( '', ( 6.18446633569413E-016, 10.1000000000000, -90.0000000000000 ) );
#253 = DIRECTION( '', ( 0.000000000000000, 0.000000000000000, 1.00000000000000 ) );
#254 = DIRECTION( '', ( 1.00000000000000, 0.000000000000000, 0.000000000000000 ) );
#255 = SURFACE_STYLE_FILL_AREA( #329 );
#256 = ORIENTED_EDGE( '', *, *, #330, .T. );
#257 = ORIENTED_EDGE( '', *, *, #331, .F. );
#258 = CARTESIAN_POINT( '', ( 7.96020419445780E-016, 13.0000000000000, 1.41349359947715E-015 ) );
#259 = DIRECTION( '', ( 0.000000000000000, 0.000000000000000, -1.00000000000000 ) );
#260 = DIRECTION( '', ( -1.00000000000000, 0.000000000000000, 0.000000000000000 ) );
#261 = SURFACE_STYLE_FILL_AREA( #332 );
#262 = ORIENTED_EDGE( '', *, *, #323, .T. );
#263 = CARTESIAN_POINT( '', ( -2.73430463206548E-016, -8.90000000000000, -2.00000000000000 ) );
#264 = DIRECTION( '', ( 9.53039908980265E-017, 9.53039908980265E-017, -1.00000000000000 ) );
#265 = DIRECTION( '', ( 1.11022302462516E-016, 1.00000000000000, 9.53039908980265E-017 ) );
#266 = SURFACE_STYLE_FILL_AREA( #333 );
#267 = ORIENTED_EDGE( '', *, *, #334, .T. );
#268 = ORIENTED_EDGE( '', *, *, #326, .F. );
#269 = CARTESIAN_POINT( '', ( 0.000000000000000, 0.000000000000000, -90.0000000000000 ) );
#270 = DIRECTION( '', ( -0.000000000000000, 0.000000000000000, -1.00000000000000 ) );
#271 = DIRECTION( '', ( 0.000000000000000, 1.00000000000000, 0.000000000000000 ) );
#272 = SURFACE_STYLE_FILL_AREA( #335 );
#273 = VERTEX_POINT( '', #336 );
#274 = ORIENTED_EDGE( '', *, *, #314, .F. );
#275 = ORIENTED_EDGE( '', *, *, #330, .F. );
#276 = CARTESIAN_POINT( '', ( 0.000000000000000, 0.000000000000000, -1.00000000000000 ) );
#277 = DIRECTION( '', ( 0.000000000000000, 0.000000000000000, -1.00000000000000 ) );
#278 = DIRECTION( '', ( -1.00000000000000, 0.000000000000000, 0.000000000000000 ) );
#279 = SURFACE_STYLE_FILL_AREA( #337 );
#280 = ORIENTED_EDGE( '', *, *, #320, .T. );
#281 = ORIENTED_EDGE( '', *, *, #331, .T. );
#282 = CARTESIAN_POINT( '', ( -9.59724283568094E-016, 0.000000000000000, 3.59094091357841 ) );
#283 = DIRECTION( '', ( 2.23427047915369E-016, -0.000000000000000, -1.00000000000000 ) );
#284 = DIRECTION( '', ( 1.00000000000000, 0.000000000000000, 2.23427047915369E-016 ) );
#285 = SURFACE_STYLE_FILL_AREA( #338 );
#286 = ORIENTED_EDGE( '', *, *, #321, .T. );
#287 = CARTESIAN_POINT( '', ( 10.8500000000000, -6.64348946948640E-016, 5.20417042793042E-015 ) );
#288 = DIRECTION( '', ( 2.69402393921228E-016, 9.53039908980265E-017, -1.00000000000000 ) );
#289 = DIRECTION( '', ( 1.00000000000000, -5.18250444086063E-032, 2.69402393921228E-016 ) );
#290 = SURFACE_STYLE_FILL_AREA( #339 );
#291 = ORIENTED_EDGE( '', *, *, #340, .F. );
#292 = ORIENTED_EDGE( '', *, *, #324, .T. );
#293 = CARTESIAN_POINT( '', ( -3.99334912165267E-015, -4.51740916856646E-015, 47.4000000000000 ) );
#294 = DIRECTION( '', ( 9.53039908980265E-017, 9.53039908980265E-017, -1.00000000000000 ) );
#295 = DIRECTION( '', ( -1.11022302462516E-016, -1.00000000000000, -9.53039908980265E-017 ) );
#296 = SURFACE_STYLE_FILL_AREA( #341 );
#297 = ORIENTED_EDGE( '', *, *, #318, .T. );
#298 = ORIENTED_EDGE( '', *, *, #315, .F. );
#299 = CARTESIAN_POINT( '', ( 0.000000000000000, 0.000000000000000, -90.0000000000000 ) );
#300 = DIRECTION( '', ( -0.000000000000000, -0.000000000000000, 1.00000000000000 ) );
#301 = DIRECTION( '', ( 1.00000000000000, 0.000000000000000, 0.000000000000000 ) );
#302 = SURFACE_STYLE_FILL_AREA( #342 );
#303 = ORIENTED_EDGE( '', *, *, #334, .F. );
#304 = ORIENTED_EDGE( '', *, *, #328, .F. );
#305 = CARTESIAN_POINT( '', ( 0.000000000000000, 0.000000000000000, -89.8000000000000 ) );
#306 = DIRECTION( '', ( 0.000000000000000, 0.000000000000000, 1.00000000000000 ) );
#307 = DIRECTION( '', ( 1.00000000000000, 0.000000000000000, 0.000000000000000 ) );
#308 = SURFACE_STYLE_FILL_AREA( #343 );
#309 = ORIENTED_EDGE( '', *, *, #340, .T. );
#310 = CARTESIAN_POINT( '', ( 1.05208682914778E-015, 0.000000000000000, -5.00000000000000 ) );
#311 = DIRECTION( '', ( -2.23427047915369E-016, 0.000000000000000, 1.00000000000000 ) );
#312 = DIRECTION( '', ( 1.00000000000000, 0.000000000000000, 2.23427047915369E-016 ) );
#313 = FILL_AREA_STYLE( '', ( #344 ) );
#314 = EDGE_CURVE( '', #345, #345, #346, .T. );
#315 = EDGE_CURVE( '', #347, #347, #348, .T. );
#316 = FILL_AREA_STYLE( '', ( #349 ) );
#317 = EDGE_CURVE( '', #350, #350, #351, .F. );
#318 = EDGE_CURVE( '', #352, #352, #353, .F. );
#319 = FILL_AREA_STYLE( '', ( #354 ) );
#320 = EDGE_CURVE( '', #355, #355, #356, .T. );
#321 = EDGE_CURVE( '', #357, #357, #358, .F. );
#322 = FILL_AREA_STYLE( '', ( #359 ) );
#323 = EDGE_CURVE( '', #360, #360, #361, .T. );
#324 = EDGE_CURVE( '', #362, #362, #363, .F. );
#325 = FILL_AREA_STYLE( '', ( #364 ) );
#326 = EDGE_CURVE( '', #365, #365, #366, .T. );
#327 = FILL_AREA_STYLE( '', ( #367 ) );
#328 = EDGE_CURVE( '', #368, #368, #369, .T. );
#329 = FILL_AREA_STYLE( '', ( #370 ) );
#330 = EDGE_CURVE( '', #371, #371, #372, .F. );
#331 = EDGE_CURVE( '', #373, #373, #374, .F. );
#332 = FILL_AREA_STYLE( '', ( #375 ) );
#333 = FILL_AREA_STYLE( '', ( #376 ) );
#334 = EDGE_CURVE( '', #377, #377, #378, .F. );
#335 = FILL_AREA_STYLE( '', ( #379 ) );
#336 = CARTESIAN_POINT( '', ( -12.9924563018648, 0.000000000000000, -1.00000000000000 ) );
#337 = FILL_AREA_STYLE( '', ( #380 ) );
#338 = FILL_AREA_STYLE( '', ( #381 ) );
#339 = FILL_AREA_STYLE( '', ( #382 ) );
#340 = EDGE_CURVE( '', #383, #383, #384, .T. );
#341 = FILL_AREA_STYLE( '', ( #385 ) );
#342 = FILL_AREA_STYLE( '', ( #386 ) );
#343 = FILL_AREA_STYLE( '', ( #387 ) );
#344 = FILL_AREA_STYLE_COLOUR( '', #388 );
#345 = VERTEX_POINT( '', #389 );
#346 = CIRCLE( '', #390, 12.9924280620105 );
#347 = VERTEX_POINT( '', #391 );
#348 = CIRCLE( '', #392, 12.5039798060999 );
#349 = FILL_AREA_STYLE_COLOUR( '', #393 );
#350 = VERTEX_POINT( '', #394 );
#351 = CIRCLE( '', #395, 9.82854852481024 );
#352 = VERTEX_POINT( '', #396 );
#353 = CIRCLE( '', #397, 10.1270547768723 );
#354 = FILL_AREA_STYLE_COLOUR( '', #398 );
#355 = VERTEX_POINT( '', #399 );
#356 = CIRCLE( '', #400, 10.3752487984418 );
#357 = VERTEX_POINT( '', #401 );
#358 = CIRCLE( '', #402, 10.3500000000000 );
#359 = FILL_AREA_STYLE_COLOUR( '', #403 );
#360 = VERTEX_POINT( '', #404 );
#361 = CIRCLE( '', #405, 8.60000000000000 );
#362 = VERTEX_POINT( '', #406 );
#363 = CIRCLE( '', #407, 8.90000000000000 );
#364 = FILL_AREA_STYLE_COLOUR( '', #408 );
#365 = VERTEX_POINT( '', #409 );
#366 = CIRCLE( '', #410, 5.00000000000000 );
#367 = FILL_AREA_STYLE_COLOUR( '', #411 );
#368 = VERTEX_POINT( '', #412 );
#369 = CIRCLE( '', #413, 5.20000000000000 );
#370 = FILL_AREA_STYLE_COLOUR( '', #414 );
#371 = VERTEX_POINT( '', #415 );
#372 = CIRCLE( '', #416, 11.9924563018648 );
#373 = VERTEX_POINT( '', #417 );
#374 = CIRCLE( '', #418, 10.3752487984418 );
#375 = FILL_AREA_STYLE_COLOUR( '', #419 );
#376 = FILL_AREA_STYLE_COLOUR( '', #420 );
#377 = VERTEX_POINT( '', #421 );
#378 = CIRCLE( '', #422, 5.00000000000000 );
#379 = FILL_AREA_STYLE_COLOUR( '', #423 );
#380 = FILL_AREA_STYLE_COLOUR( '', #424 );
#381 = FILL_AREA_STYLE_COLOUR( '', #425 );
#382 = FILL_AREA_STYLE_COLOUR( '', #426 );
#383 = VERTEX_POINT( '', #427 );
#384 = CIRCLE( '', #428, 8.90000000000000 );
#385 = FILL_AREA_STYLE_COLOUR( '', #429 );
#386 = FILL_AREA_STYLE_COLOUR( '', #430 );
#387 = FILL_AREA_STYLE_COLOUR( '', #431 );
#388 = COLOUR_RGB( '', 0.200000002980232, 0.200000002980232, 0.200000002980232 );
#389 = CARTESIAN_POINT( '', ( -12.9924280620105, 0.000000000000000, -1.00751524524778 ) );
#390 = AXIS2_PLACEMENT_3D( '', #432, #433, #434 );
#391 = CARTESIAN_POINT( '', ( 12.5039798060999, 0.000000000000000, -66.0000000000000 ) );
#392 = AXIS2_PLACEMENT_3D( '', #435, #436, #437 );
#393 = COLOUR_RGB( '', 0.200000002980232, 0.200000002980232, 0.200000002980232 );
#394 = CARTESIAN_POINT( '', ( 9.82854852481024, 0.000000000000000, -90.0000000000000 ) );
#395 = AXIS2_PLACEMENT_3D( '', #438, #439, #440 );
#396 = CARTESIAN_POINT( '', ( -10.1270547768723, 0.000000000000000, -89.7299001250813 ) );
#397 = AXIS2_PLACEMENT_3D( '', #441, #442, #443 );
#398 = COLOUR_RGB( '', 0.200000002980232, 0.200000002980232, 0.200000002980232 );
#399 = CARTESIAN_POINT( '', ( -10.3752487984418, 6.07952497351253E-020, -0.000637908750328600 ) );
#400 = AXIS2_PLACEMENT_3D( '', #444, #445, #446 );
#401 = CARTESIAN_POINT( '', ( 10.3500000000000, -5.23173717838603E-031, 5.10868089855128E-015 ) );
#402 = AXIS2_PLACEMENT_3D( '', #447, #448, #449 );
#403 = COLOUR_RGB( '', 0.200000002980232, 0.200000002980232, 0.200000002980232 );
#404 = CARTESIAN_POINT( '', ( 1.66945982988748E-015, 8.60000000000000, -2.00000000000000 ) );
#405 = AXIS2_PLACEMENT_3D( '', #450, #451, #452 );
#406 = CARTESIAN_POINT( '', ( 1.73135771789564E-015, 8.90000000000000, -2.30000000000000 ) );
#407 = AXIS2_PLACEMENT_3D( '', #453, #454, #455 );
#408 = COLOUR_RGB( '', 0.200000002980232, 0.200000002980232, 0.200000002980232 );
#409 = CARTESIAN_POINT( '', ( 0.000000000000000, 5.00000000000000, -70.0000000000000 ) );
#410 = AXIS2_PLACEMENT_3D( '', #456, #457, #458 );
#411 = COLOUR_RGB( '', 0.200000002980232, 0.200000002980232, 0.200000002980232 );
#412 = CARTESIAN_POINT( '', ( 5.20000000000000, 0.000000000000000, -90.0000000000000 ) );
#413 = AXIS2_PLACEMENT_3D( '', #459, #460, #461 );
#414 = COLOUR_RGB( '', 0.200000002980232, 0.200000002980232, 0.200000002980232 );
#415 = CARTESIAN_POINT( '', ( -11.9924563018648, 0.000000000000000, 1.51788304147971E-015 ) );
#416 = AXIS2_PLACEMENT_3D( '', #462, #463, #464 );
#417 = CARTESIAN_POINT( '', ( -10.3752487984418, 0.000000000000000, 1.30104260698260E-015 ) );
#418 = AXIS2_PLACEMENT_3D( '', #465, #466, #467 );
#419 = COLOUR_RGB( '', 0.200000002980232, 0.200000002980232, 0.200000002980232 );
#420 = COLOUR_RGB( '', 0.200000002980232, 0.200000002980232, 0.200000002980232 );
#421 = CARTESIAN_POINT( '', ( 5.00000000000000, 0.000000000000000, -89.8000000000000 ) );
#422 = AXIS2_PLACEMENT_3D( '', #468, #469, #470 );
#423 = COLOUR_RGB( '', 0.200000002980232, 0.200000002980232, 0.200000002980232 );
#424 = COLOUR_RGB( '', 0.200000002980232, 0.200000002980232, 0.200000002980232 );
#425 = COLOUR_RGB( '', 0.200000002980232, 0.200000002980232, 0.200000002980232 );
#426 = COLOUR_RGB( '', 0.200000002980232, 0.200000002980232, 0.200000002980232 );
#427 = CARTESIAN_POINT( '', ( 8.90000000000000, 4.76519954490134E-016, -5.00000000000000 ) );
#428 = AXIS2_PLACEMENT_3D( '', #471, #472, #473 );
#429 = COLOUR_RGB( '', 0.200000002980232, 0.200000002980232, 0.200000002980232 );
#430 = COLOUR_RGB( '', 0.200000002980232, 0.200000002980232, 0.200000002980232 );
#431 = COLOUR_RGB( '', 0.200000002980232, 0.200000002980232, 0.200000002980232 );
#432 = CARTESIAN_POINT( '', ( 0.000000000000000, 0.000000000000000, -1.00751524524778 ) );
#433 = DIRECTION( '', ( 0.000000000000000, 0.000000000000000, -1.00000000000000 ) );
#434 = DIRECTION( '', ( -1.00000000000000, 0.000000000000000, 0.000000000000000 ) );
#435 = CARTESIAN_POINT( '', ( 0.000000000000000, 0.000000000000000, -66.0000000000000 ) );
#436 = DIRECTION( '', ( 0.000000000000000, 0.000000000000000, 1.00000000000000 ) );
#437 = DIRECTION( '', ( 1.00000000000000, 0.000000000000000, 0.000000000000000 ) );
#438 = CARTESIAN_POINT( '', ( 0.000000000000000, 0.000000000000000, -90.0000000000000 ) );
#439 = DIRECTION( '', ( 0.000000000000000, 0.000000000000000, 1.00000000000000 ) );
#440 = DIRECTION( '', ( 1.00000000000000, 0.000000000000000, 0.000000000000000 ) );
#441 = CARTESIAN_POINT( '', ( 0.000000000000000, 0.000000000000000, -89.7299001250813 ) );
#442 = DIRECTION( '', ( 0.000000000000000, 0.000000000000000, -1.00000000000000 ) );
#443 = DIRECTION( '', ( -1.00000000000000, 0.000000000000000, 0.000000000000000 ) );
#444 = CARTESIAN_POINT( '', ( 3.58838418186190E-016, 6.07952497351253E-020, -0.000637908750325805 ) );
#445 = DIRECTION( '', ( 2.69402393921228E-016, 9.53039908980265E-017, -1.00000000000000 ) );
#446 = DIRECTION( '', ( -1.00000000000000, 0.000000000000000, -2.69402393921228E-016 ) );
#447 = CARTESIAN_POINT( '', ( 3.58666564041748E-016, -9.62964972193618E-032, 3.46944695195362E-015 ) );
#448 = DIRECTION( '', ( 2.69402393921228E-016, 9.53039908980265E-017, -1.00000000000000 ) );
#449 = DIRECTION( '', ( 1.00000000000000, -5.18250444086063E-032, 2.69402393921228E-016 ) );
#450 = CARTESIAN_POINT( '', ( 7.14668028709842E-016, 1.90607981796053E-016, -2.00000000000000 ) );
#451 = DIRECTION( '', ( 9.53039908980265E-017, 9.53039908980265E-017, -1.00000000000000 ) );
#452 = DIRECTION( '', ( 1.11022302462516E-016, 1.00000000000000, 9.53039908980265E-017 ) );
#453 = CARTESIAN_POINT( '', ( 7.43259225979250E-016, 2.19199179065461E-016, -2.30000000000000 ) );
#454 = DIRECTION( '', ( 9.53039908980265E-017, 9.53039908980265E-017, -1.00000000000000 ) );
#455 = DIRECTION( '', ( 1.11022302462516E-016, 1.00000000000000, 9.53039908980265E-017 ) );
#456 = CARTESIAN_POINT( '', ( 0.000000000000000, 0.000000000000000, -70.0000000000000 ) );
#457 = DIRECTION( '', ( 0.000000000000000, 0.000000000000000, -1.00000000000000 ) );
#458 = DIRECTION( '', ( 0.000000000000000, 1.00000000000000, 0.000000000000000 ) );
#459 = CARTESIAN_POINT( '', ( 0.000000000000000, 0.000000000000000, -90.0000000000000 ) );
#460 = DIRECTION( '', ( 0.000000000000000, 0.000000000000000, 1.00000000000000 ) );
#461 = DIRECTION( '', ( 1.00000000000000, 0.000000000000000, 0.000000000000000 ) );
#462 = CARTESIAN_POINT( '', ( 0.000000000000000, 0.000000000000000, 1.51788304147971E-015 ) );
#463 = DIRECTION( '', ( 0.000000000000000, 0.000000000000000, -1.00000000000000 ) );
#464 = DIRECTION( '', ( -1.00000000000000, 0.000000000000000, 0.000000000000000 ) );
#465 = CARTESIAN_POINT( '', ( -1.57410956008753E-016, 0.000000000000000, 1.30104260698260E-015 ) );
#466 = DIRECTION( '', ( 0.000000000000000, 0.000000000000000, -1.00000000000000 ) );
#467 = DIRECTION( '', ( -1.00000000000000, 0.000000000000000, 0.000000000000000 ) );
#468 = CARTESIAN_POINT( '', ( 0.000000000000000, 0.000000000000000, -89.8000000000000 ) );
#469 = DIRECTION( '', ( 0.000000000000000, 0.000000000000000, 1.00000000000000 ) );
#470 = DIRECTION( '', ( 1.00000000000000, 0.000000000000000, 0.000000000000000 ) );
#471 = CARTESIAN_POINT( '', ( 1.00058000140392E-015, 4.76519954490134E-016, -5.00000000000000 ) );
#472 = DIRECTION( '', ( -2.23427047915369E-016, 0.000000000000000, 1.00000000000000 ) );
#473 = DIRECTION( '', ( 1.00000000000000, 0.000000000000000, 2.23427047915369E-016 ) );
ENDSEC;
END-ISO-10303-21;
