ISO-10303-21;
HEADER;
FILE_DESCRIPTION( ( 'Unknown' ), '1' );
FILE_NAME( '//SBS2003/HD_Usb/Disegni/08_LIB/Users_3D/PROD_GAMM_3D/PL/7109000_PL35.stp', 'Unknown', ( 'Unknown' ), ( 'Unknown' ), 'PSStep 11.0', 'Unknown', '  ' );
FILE_SCHEMA( ( 'AUTOMOTIVE_DESIGN { 1 0 10303 214 1 1 1 1 }' ) );
ENDSEC;
DATA;
#1 = MECHANICAL_DESIGN_GEOMETRIC_PRESENTATION_REPRESENTATION( ' ', ( #10, #11, #12, #13, #14, #15, #16, #17, #18, #19, #20 ), #6 );
#2 = PRODUCT_DEFINITION_CONTEXT( '', #21, 'design' );
#3 = APPLICATION_PROTOCOL_DEFINITION( 'INTERNATIONAL STANDARD', 'automotive_design', 2001, #21 );
#4 = PRODUCT_CATEGORY_RELATIONSHIP( 'NONE', 'NONE', #22, #23 );
#5 = SHAPE_DEFINITION_REPRESENTATION( #24, #25 );
#6 =  ( GEOMETRIC_REPRESENTATION_CONTEXT( 3 )GLOBAL_UNCERTAINTY_ASSIGNED_CONTEXT( ( #28 ) )GLOBAL_UNIT_ASSIGNED_CONTEXT( ( #30, #31, #32 ) )REPRESENTATION_CONTEXT( 'NONE', 'WORKSPACE' ) );
#10 = STYLED_ITEM( '', ( #34 ), #35 );
#11 = STYLED_ITEM( '', ( #36 ), #37 );
#12 = STYLED_ITEM( '', ( #38 ), #39 );
#13 = STYLED_ITEM( '', ( #40 ), #41 );
#14 = STYLED_ITEM( '', ( #42 ), #43 );
#15 = STYLED_ITEM( '', ( #44 ), #45 );
#16 = STYLED_ITEM( '', ( #46 ), #47 );
#17 = STYLED_ITEM( '', ( #48 ), #49 );
#18 = STYLED_ITEM( '', ( #50 ), #51 );
#19 = STYLED_ITEM( '', ( #52 ), #53 );
#20 = STYLED_ITEM( '', ( #54 ), #55 );
#21 = APPLICATION_CONTEXT( 'core data for automotive mechanical design processes' );
#22 = PRODUCT_CATEGORY( 'part', 'NONE' );
#23 = PRODUCT_RELATED_PRODUCT_CATEGORY( 'detail', ' ', ( #56 ) );
#24 = PRODUCT_DEFINITION_SHAPE( 'NONE', 'NONE', #57 );
#25 = ADVANCED_BREP_SHAPE_REPRESENTATION( '1', ( #58, #59 ), #6 );
#28 = UNCERTAINTY_MEASURE_WITH_UNIT( LENGTH_MEASURE( 0.00100000000000000 ), #30, '', '' );
#30 =  ( CONVERSION_BASED_UNIT( 'MILLIMETRE', #62 )LENGTH_UNIT(  )NAMED_UNIT( #65 ) );
#31 =  ( NAMED_UNIT( #67 )PLANE_ANGLE_UNIT(  )SI_UNIT( $, .RADIAN. ) );
#32 =  ( NAMED_UNIT( #67 )SI_UNIT( $, .STERADIAN. )SOLID_ANGLE_UNIT(  ) );
#34 = PRESENTATION_STYLE_ASSIGNMENT( ( #73 ) );
#35 = ADVANCED_FACE( '', ( #74, #75 ), #76, .T. );
#36 = PRESENTATION_STYLE_ASSIGNMENT( ( #77 ) );
#37 = ADVANCED_FACE( '', ( #78, #79 ), #80, .F. );
#38 = PRESENTATION_STYLE_ASSIGNMENT( ( #81 ) );
#39 = ADVANCED_FACE( '', ( #82 ), #83, .T. );
#40 = PRESENTATION_STYLE_ASSIGNMENT( ( #84 ) );
#41 = ADVANCED_FACE( '', ( #85, #86 ), #87, .F. );
#42 = PRESENTATION_STYLE_ASSIGNMENT( ( #88 ) );
#43 = ADVANCED_FACE( '', ( #89, #90 ), #91, .F. );
#44 = PRESENTATION_STYLE_ASSIGNMENT( ( #92 ) );
#45 = ADVANCED_FACE( '', ( #93, #94 ), #95, .F. );
#46 = PRESENTATION_STYLE_ASSIGNMENT( ( #96 ) );
#47 = ADVANCED_FACE( '', ( #97, #98 ), #99, .F. );
#48 = PRESENTATION_STYLE_ASSIGNMENT( ( #100 ) );
#49 = ADVANCED_FACE( '', ( #101, #102 ), #103, .T. );
#50 = PRESENTATION_STYLE_ASSIGNMENT( ( #104 ) );
#51 = ADVANCED_FACE( '', ( #105, #106 ), #107, .F. );
#52 = PRESENTATION_STYLE_ASSIGNMENT( ( #108 ) );
#53 = ADVANCED_FACE( '', ( #109, #110 ), #111, .F. );
#54 = PRESENTATION_STYLE_ASSIGNMENT( ( #112 ) );
#55 = ADVANCED_FACE( '', ( #113, #114 ), #115, .T. );
#56 = PRODUCT( '1', '1', 'PART-1-DESC', ( #116 ) );
#57 = PRODUCT_DEFINITION( 'NONE', 'NONE', #117, #2 );
#58 = MANIFOLD_SOLID_BREP( '1', #118 );
#59 = AXIS2_PLACEMENT_3D( '', #119, #120, #121 );
#62 = LENGTH_MEASURE_WITH_UNIT( LENGTH_MEASURE( 1.00000000000000 ), #122 );
#65 = DIMENSIONAL_EXPONENTS( 1.00000000000000, 0.000000000000000, 0.000000000000000, 0.000000000000000, 0.000000000000000, 0.000000000000000, 0.000000000000000 );
#67 = DIMENSIONAL_EXPONENTS( 0.000000000000000, 0.000000000000000, 0.000000000000000, 0.000000000000000, 0.000000000000000, 0.000000000000000, 0.000000000000000 );
#73 = SURFACE_STYLE_USAGE( .BOTH., #123 );
#74 = FACE_OUTER_BOUND( '', #124, .T. );
#75 = FACE_OUTER_BOUND( '', #125, .T. );
#76 = TOROIDAL_SURFACE( '', #126, 15.0000000000000, 2.50000000000000 );
#77 = SURFACE_STYLE_USAGE( .BOTH., #127 );
#78 = FACE_OUTER_BOUND( '', #128, .T. );
#79 = FACE_OUTER_BOUND( '', #129, .T. );
#80 = CYLINDRICAL_SURFACE( '', #130, 2.45850000000000 );
#81 = SURFACE_STYLE_USAGE( .BOTH., #131 );
#82 = FACE_OUTER_BOUND( '', #132, .T. );
#83 = SPHERICAL_SURFACE( '', #133, 60.0000000000000 );
#84 = SURFACE_STYLE_USAGE( .BOTH., #134 );
#85 = FACE_BOUND( '', #135, .T. );
#86 = FACE_OUTER_BOUND( '', #136, .T. );
#87 = CONICAL_SURFACE( '', #137, 2.95850000000000, 0.785398163397448 );
#88 = SURFACE_STYLE_USAGE( .BOTH., #138 );
#89 = FACE_OUTER_BOUND( '', #139, .T. );
#90 = FACE_OUTER_BOUND( '', #140, .T. );
#91 = TOROIDAL_SURFACE( '', #141, 108.443639427916, 100.000000000000 );
#92 = SURFACE_STYLE_USAGE( .BOTH., #142 );
#93 = FACE_BOUND( '', #143, .T. );
#94 = FACE_OUTER_BOUND( '', #144, .T. );
#95 = PLANE( '', #145 );
#96 = SURFACE_STYLE_USAGE( .BOTH., #146 );
#97 = FACE_OUTER_BOUND( '', #147, .T. );
#98 = FACE_OUTER_BOUND( '', #148, .T. );
#99 = CYLINDRICAL_SURFACE( '', #149, 2.45850000000000 );
#100 = SURFACE_STYLE_USAGE( .BOTH., #150 );
#101 = FACE_OUTER_BOUND( '', #151, .T. );
#102 = FACE_OUTER_BOUND( '', #152, .T. );
#103 = CYLINDRICAL_SURFACE( '', #153, 17.5000000000000 );
#104 = SURFACE_STYLE_USAGE( .BOTH., #154 );
#105 = FACE_OUTER_BOUND( '', #155, .T. );
#106 = FACE_BOUND( '', #156, .T. );
#107 = CONICAL_SURFACE( '', #157, 2.45850000000000, 1.02974425867665 );
#108 = SURFACE_STYLE_USAGE( .BOTH., #158 );
#109 = FACE_OUTER_BOUND( '', #159, .T. );
#110 = FACE_OUTER_BOUND( '', #160, .T. );
#111 = TOROIDAL_SURFACE( '', #161, 17.1115579280014, 7.00000000000000 );
#112 = SURFACE_STYLE_USAGE( .BOTH., #162 );
#113 = FACE_OUTER_BOUND( '', #163, .T. );
#114 = FACE_OUTER_BOUND( '', #164, .T. );
#115 = TOROIDAL_SURFACE( '', #165, 15.0000000000000, 2.50000000000000 );
#116 = PRODUCT_CONTEXT( '', #21, 'mechanical' );
#117 = PRODUCT_DEFINITION_FORMATION_WITH_SPECIFIED_SOURCE( ' ', 'NONE', #56, .NOT_KNOWN. );
#118 = CLOSED_SHELL( '', ( #47, #41, #51, #37, #55, #39, #45, #49, #53, #43, #35 ) );
#119 = CARTESIAN_POINT( '', ( 0.000000000000000, 0.000000000000000, 0.000000000000000 ) );
#120 = DIRECTION( '', ( 0.000000000000000, 0.000000000000000, 1.00000000000000 ) );
#121 = DIRECTION( '', ( 1.00000000000000, 0.000000000000000, 0.000000000000000 ) );
#122 =  ( LENGTH_UNIT(  )NAMED_UNIT( #65 )SI_UNIT( .MILLI., .METRE. ) );
#123 = SURFACE_SIDE_STYLE( '', ( #167 ) );
#124 = EDGE_LOOP( '', ( #168 ) );
#125 = EDGE_LOOP( '', ( #169 ) );
#126 = AXIS2_PLACEMENT_3D( '', #170, #171, #172 );
#127 = SURFACE_SIDE_STYLE( '', ( #173 ) );
#128 = EDGE_LOOP( '', ( #174 ) );
#129 = EDGE_LOOP( '', ( #175 ) );
#130 = AXIS2_PLACEMENT_3D( '', #176, #177, #178 );
#131 = SURFACE_SIDE_STYLE( '', ( #179 ) );
#132 = EDGE_LOOP( '', ( #180 ) );
#133 = AXIS2_PLACEMENT_3D( '', #181, #182, #183 );
#134 = SURFACE_SIDE_STYLE( '', ( #184 ) );
#135 = EDGE_LOOP( '', ( #185 ) );
#136 = EDGE_LOOP( '', ( #186 ) );
#137 = AXIS2_PLACEMENT_3D( '', #187, #188, #189 );
#138 = SURFACE_SIDE_STYLE( '', ( #190 ) );
#139 = EDGE_LOOP( '', ( #191 ) );
#140 = EDGE_LOOP( '', ( #192 ) );
#141 = AXIS2_PLACEMENT_3D( '', #193, #194, #195 );
#142 = SURFACE_SIDE_STYLE( '', ( #196 ) );
#143 = EDGE_LOOP( '', ( #197 ) );
#144 = EDGE_LOOP( '', ( #198 ) );
#145 = AXIS2_PLACEMENT_3D( '', #199, #200, #201 );
#146 = SURFACE_SIDE_STYLE( '', ( #202 ) );
#147 = EDGE_LOOP( '', ( #203 ) );
#148 = EDGE_LOOP( '', ( #204 ) );
#149 = AXIS2_PLACEMENT_3D( '', #205, #206, #207 );
#150 = SURFACE_SIDE_STYLE( '', ( #208 ) );
#151 = EDGE_LOOP( '', ( #209 ) );
#152 = EDGE_LOOP( '', ( #210 ) );
#153 = AXIS2_PLACEMENT_3D( '', #211, #212, #213 );
#154 = SURFACE_SIDE_STYLE( '', ( #214 ) );
#155 = EDGE_LOOP( '', ( #215 ) );
#156 = VERTEX_LOOP( '', #216 );
#157 = AXIS2_PLACEMENT_3D( '', #217, #218, #219 );
#158 = SURFACE_SIDE_STYLE( '', ( #220 ) );
#159 = EDGE_LOOP( '', ( #221 ) );
#160 = EDGE_LOOP( '', ( #222 ) );
#161 = AXIS2_PLACEMENT_3D( '', #223, #224, #225 );
#162 = SURFACE_SIDE_STYLE( '', ( #226 ) );
#163 = EDGE_LOOP( '', ( #227 ) );
#164 = EDGE_LOOP( '', ( #228 ) );
#165 = AXIS2_PLACEMENT_3D( '', #229, #230, #231 );
#167 = SURFACE_STYLE_FILL_AREA( #232 );
#168 = ORIENTED_EDGE( '', *, *, #233, .F. );
#169 = ORIENTED_EDGE( '', *, *, #234, .F. );
#170 = CARTESIAN_POINT( '', ( 0.000000000000000, 0.000000000000000, 30.1535619748010 ) );
#171 = DIRECTION( '', ( 0.000000000000000, 0.000000000000000, -1.00000000000000 ) );
#172 = DIRECTION( '', ( -1.00000000000000, 0.000000000000000, 0.000000000000000 ) );
#173 = SURFACE_STYLE_FILL_AREA( #235 );
#174 = ORIENTED_EDGE( '', *, *, #236, .T. );
#175 = ORIENTED_EDGE( '', *, *, #237, .F. );
#176 = CARTESIAN_POINT( '', ( 0.000000000000000, 0.000000000000000, 0.000000000000000 ) );
#177 = DIRECTION( '', ( -0.000000000000000, 0.000000000000000, -1.00000000000000 ) );
#178 = DIRECTION( '', ( 0.000000000000000, 1.00000000000000, 0.000000000000000 ) );
#179 = SURFACE_STYLE_FILL_AREA( #238 );
#180 = ORIENTED_EDGE( '', *, *, #239, .T. );
#181 = CARTESIAN_POINT( '', ( 8.21854359599657E-015, 0.000000000000000, -25.0000000000000 ) );
#182 = DIRECTION( '', ( 0.000000000000000, 0.000000000000000, 1.00000000000000 ) );
#183 = DIRECTION( '', ( 1.00000000000000, 0.000000000000000, 0.000000000000000 ) );
#184 = SURFACE_STYLE_FILL_AREA( #240 );
#185 = ORIENTED_EDGE( '', *, *, #236, .F. );
#186 = ORIENTED_EDGE( '', *, *, #241, .F. );
#187 = CARTESIAN_POINT( '', ( 0.000000000000000, 0.000000000000000, 0.000000000000000 ) );
#188 = DIRECTION( '', ( -0.000000000000000, 0.000000000000000, -1.00000000000000 ) );
#189 = DIRECTION( '', ( -1.00000000000000, 0.000000000000000, 0.000000000000000 ) );
#190 = SURFACE_STYLE_FILL_AREA( #242 );
#191 = ORIENTED_EDGE( '', *, *, #243, .T. );
#192 = ORIENTED_EDGE( '', *, *, #244, .T. );
#193 = CARTESIAN_POINT( '', ( 0.000000000000000, 0.000000000000000, 3.35692387501429 ) );
#194 = DIRECTION( '', ( 0.000000000000000, 0.000000000000000, 1.00000000000000 ) );
#195 = DIRECTION( '', ( 1.00000000000000, 0.000000000000000, 0.000000000000000 ) );
#196 = SURFACE_STYLE_FILL_AREA( #245 );
#197 = ORIENTED_EDGE( '', *, *, #241, .T. );
#198 = ORIENTED_EDGE( '', *, *, #244, .F. );
#199 = CARTESIAN_POINT( '', ( 4.50464616333864E-015, 0.000000000000000, 0.000000000000000 ) );
#200 = DIRECTION( '', ( 0.000000000000000, 0.000000000000000, 1.00000000000000 ) );
#201 = DIRECTION( '', ( 1.00000000000000, 0.000000000000000, 0.000000000000000 ) );
#202 = SURFACE_STYLE_FILL_AREA( #246 );
#203 = ORIENTED_EDGE( '', *, *, #247, .T. );
#204 = ORIENTED_EDGE( '', *, *, #237, .T. );
#205 = CARTESIAN_POINT( '', ( 0.000000000000000, 0.000000000000000, 0.000000000000000 ) );
#206 = DIRECTION( '', ( -0.000000000000000, 0.000000000000000, -1.00000000000000 ) );
#207 = DIRECTION( '', ( 0.000000000000000, 1.00000000000000, 0.000000000000000 ) );
#208 = SURFACE_STYLE_FILL_AREA( #248 );
#209 = ORIENTED_EDGE( '', *, *, #249, .T. );
#210 = ORIENTED_EDGE( '', *, *, #234, .T. );
#211 = CARTESIAN_POINT( '', ( 0.000000000000000, 0.000000000000000, 57.1500000000000 ) );
#212 = DIRECTION( '', ( -0.000000000000000, -0.000000000000000, -1.00000000000000 ) );
#213 = DIRECTION( '', ( 1.00000000000000, 0.000000000000000, 0.000000000000000 ) );
#214 = SURFACE_STYLE_FILL_AREA( #250 );
#215 = ORIENTED_EDGE( '', *, *, #247, .F. );
#216 = VERTEX_POINT( '', #251 );
#217 = CARTESIAN_POINT( '', ( 0.000000000000000, 0.000000000000000, 25.0000000000000 ) );
#218 = DIRECTION( '', ( 0.000000000000000, -0.000000000000000, -1.00000000000000 ) );
#219 = DIRECTION( '', ( 0.000000000000000, -1.00000000000000, 0.000000000000000 ) );
#220 = SURFACE_STYLE_FILL_AREA( #252 );
#221 = ORIENTED_EDGE( '', *, *, #233, .T. );
#222 = ORIENTED_EDGE( '', *, *, #243, .F. );
#223 = CARTESIAN_POINT( '', ( 0.000000000000000, 0.000000000000000, 20.8912014162450 ) );
#224 = DIRECTION( '', ( 0.000000000000000, 0.000000000000000, -1.00000000000000 ) );
#225 = DIRECTION( '', ( -1.00000000000000, 0.000000000000000, 0.000000000000000 ) );
#226 = SURFACE_STYLE_FILL_AREA( #253 );
#227 = ORIENTED_EDGE( '', *, *, #249, .F. );
#228 = ORIENTED_EDGE( '', *, *, #239, .F. );
#229 = CARTESIAN_POINT( '', ( 0.000000000000000, 0.000000000000000, 30.5090082779363 ) );
#230 = DIRECTION( '', ( 0.000000000000000, 0.000000000000000, -1.00000000000000 ) );
#231 = DIRECTION( '', ( -1.00000000000000, 0.000000000000000, 0.000000000000000 ) );
#232 = FILL_AREA_STYLE( '', ( #254 ) );
#233 = EDGE_CURVE( '', #255, #255, #256, .T. );
#234 = EDGE_CURVE( '', #257, #257, #258, .F. );
#235 = FILL_AREA_STYLE( '', ( #259 ) );
#236 = EDGE_CURVE( '', #260, #260, #261, .F. );
#237 = EDGE_CURVE( '', #262, #262, #263, .T. );
#238 = FILL_AREA_STYLE( '', ( #264 ) );
#239 = EDGE_CURVE( '', #265, #265, #266, .F. );
#240 = FILL_AREA_STYLE( '', ( #267 ) );
#241 = EDGE_CURVE( '', #268, #268, #269, .T. );
#242 = FILL_AREA_STYLE( '', ( #270 ) );
#243 = EDGE_CURVE( '', #271, #271, #272, .T. );
#244 = EDGE_CURVE( '', #273, #273, #274, .T. );
#245 = FILL_AREA_STYLE( '', ( #275 ) );
#246 = FILL_AREA_STYLE( '', ( #276 ) );
#247 = EDGE_CURVE( '', #277, #277, #278, .T. );
#248 = FILL_AREA_STYLE( '', ( #279 ) );
#249 = EDGE_CURVE( '', #280, #280, #281, .T. );
#250 = FILL_AREA_STYLE( '', ( #282 ) );
#251 = CARTESIAN_POINT( '', ( 0.000000000000000, 0.000000000000000, 26.4772158318792 ) );
#252 = FILL_AREA_STYLE( '', ( #283 ) );
#253 = FILL_AREA_STYLE( '', ( #284 ) );
#254 = FILL_AREA_STYLE_COLOUR( '', #285 );
#255 = VERTEX_POINT( '', #286 );
#256 = CIRCLE( '', #287, 15.5556731389477 );
#257 = VERTEX_POINT( '', #288 );
#258 = CIRCLE( '', #289, 17.5000000000000 );
#259 = FILL_AREA_STYLE_COLOUR( '', #290 );
#260 = VERTEX_POINT( '', #291 );
#261 = CIRCLE( '', #292, 2.45850000000000 );
#262 = VERTEX_POINT( '', #293 );
#263 = CIRCLE( '', #294, 2.45850000000000 );
#264 = FILL_AREA_STYLE_COLOUR( '', #295 );
#265 = VERTEX_POINT( '', #296 );
#266 = CIRCLE( '', #297, 15.6521739130435 );
#267 = FILL_AREA_STYLE_COLOUR( '', #298 );
#268 = VERTEX_POINT( '', #299 );
#269 = CIRCLE( '', #300, 2.95850000000000 );
#270 = FILL_AREA_STYLE_COLOUR( '', #301 );
#271 = VERTEX_POINT( '', #302 );
#272 = CIRCLE( '', #303, 10.2371001806960 );
#273 = VERTEX_POINT( '', #304 );
#274 = CIRCLE( '', #305, 8.50000000000000 );
#275 = FILL_AREA_STYLE_COLOUR( '', #306 );
#276 = FILL_AREA_STYLE_COLOUR( '', #307 );
#277 = VERTEX_POINT( '', #308 );
#278 = CIRCLE( '', #309, 2.45850000000000 );
#279 = FILL_AREA_STYLE_COLOUR( '', #310 );
#280 = VERTEX_POINT( '', #311 );
#281 = CIRCLE( '', #312, 17.5000000000000 );
#282 = FILL_AREA_STYLE_COLOUR( '', #313 );
#283 = FILL_AREA_STYLE_COLOUR( '', #314 );
#284 = FILL_AREA_STYLE_COLOUR( '', #315 );
#285 = COLOUR_RGB( '', 0.200000002980232, 0.200000002980232, 0.200000002980232 );
#286 = CARTESIAN_POINT( '', ( -15.5556731389477, 0.000000000000000, 27.7160986699179 ) );
#287 = AXIS2_PLACEMENT_3D( '', #316, #317, #318 );
#288 = CARTESIAN_POINT( '', ( -17.5000000000000, 0.000000000000000, 30.1535619748010 ) );
#289 = AXIS2_PLACEMENT_3D( '', #319, #320, #321 );
#290 = COLOUR_RGB( '', 0.752941191196442, 0.752941191196442, 0.752941191196442 );
#291 = CARTESIAN_POINT( '', ( 2.45850000000000, 0.000000000000000, 0.500000000000000 ) );
#292 = AXIS2_PLACEMENT_3D( '', #322, #323, #324 );
#293 = CARTESIAN_POINT( '', ( 0.000000000000000, 2.45850000000000, 20.0000000000000 ) );
#294 = AXIS2_PLACEMENT_3D( '', #325, #326, #327 );
#295 = COLOUR_RGB( '', 0.200000002980232, 0.200000002980232, 0.200000002980232 );
#296 = CARTESIAN_POINT( '', ( -15.6521739130435, 0.000000000000000, 32.9224434204553 ) );
#297 = AXIS2_PLACEMENT_3D( '', #328, #329, #330 );
#298 = COLOUR_RGB( '', 0.200000002980232, 0.200000002980232, 0.200000002980232 );
#299 = CARTESIAN_POINT( '', ( 2.95850000000000, 0.000000000000000, 0.000000000000000 ) );
#300 = AXIS2_PLACEMENT_3D( '', #331, #332, #333 );
#301 = COLOUR_RGB( '', 0.200000002980232, 0.200000002980232, 0.200000002980232 );
#302 = CARTESIAN_POINT( '', ( -10.2371001806960, 0.000000000000000, 22.2109857473053 ) );
#303 = AXIS2_PLACEMENT_3D( '', #334, #335, #336 );
#304 = CARTESIAN_POINT( '', ( 8.50000000000000, 0.000000000000000, 0.000000000000000 ) );
#305 = AXIS2_PLACEMENT_3D( '', #337, #338, #339 );
#306 = COLOUR_RGB( '', 0.200000002980232, 0.200000002980232, 0.200000002980232 );
#307 = COLOUR_RGB( '', 0.200000002980232, 0.200000002980232, 0.200000002980232 );
#308 = CARTESIAN_POINT( '', ( 0.000000000000000, -2.45850000000000, 25.0000000000000 ) );
#309 = AXIS2_PLACEMENT_3D( '', #340, #341, #342 );
#310 = COLOUR_RGB( '', 0.200000002980232, 0.200000002980232, 0.200000002980232 );
#311 = CARTESIAN_POINT( '', ( -17.5000000000000, 0.000000000000000, 30.5090082779363 ) );
#312 = AXIS2_PLACEMENT_3D( '', #343, #344, #345 );
#313 = COLOUR_RGB( '', 0.200000002980232, 0.200000002980232, 0.200000002980232 );
#314 = COLOUR_RGB( '', 0.200000002980232, 0.200000002980232, 0.200000002980232 );
#315 = COLOUR_RGB( '', 0.200000002980232, 0.200000002980232, 0.200000002980232 );
#316 = CARTESIAN_POINT( '', ( 0.000000000000000, 0.000000000000000, 27.7160986699179 ) );
#317 = DIRECTION( '', ( 0.000000000000000, 0.000000000000000, -1.00000000000000 ) );
#318 = DIRECTION( '', ( -1.00000000000000, 0.000000000000000, 0.000000000000000 ) );
#319 = CARTESIAN_POINT( '', ( 0.000000000000000, 0.000000000000000, 30.1535619748010 ) );
#320 = DIRECTION( '', ( 0.000000000000000, 0.000000000000000, -1.00000000000000 ) );
#321 = DIRECTION( '', ( -1.00000000000000, 0.000000000000000, 0.000000000000000 ) );
#322 = CARTESIAN_POINT( '', ( 0.000000000000000, 0.000000000000000, 0.500000000000000 ) );
#323 = DIRECTION( '', ( 0.000000000000000, 0.000000000000000, 1.00000000000000 ) );
#324 = DIRECTION( '', ( 1.00000000000000, 0.000000000000000, 0.000000000000000 ) );
#325 = CARTESIAN_POINT( '', ( 0.000000000000000, 0.000000000000000, 20.0000000000000 ) );
#326 = DIRECTION( '', ( 0.000000000000000, 0.000000000000000, -1.00000000000000 ) );
#327 = DIRECTION( '', ( 0.000000000000000, 1.00000000000000, 0.000000000000000 ) );
#328 = CARTESIAN_POINT( '', ( 8.21854359599657E-015, 0.000000000000000, 32.9224434204553 ) );
#329 = DIRECTION( '', ( 0.000000000000000, 0.000000000000000, -1.00000000000000 ) );
#330 = DIRECTION( '', ( -1.00000000000000, 0.000000000000000, 0.000000000000000 ) );
#331 = CARTESIAN_POINT( '', ( 0.000000000000000, 0.000000000000000, 0.000000000000000 ) );
#332 = DIRECTION( '', ( 0.000000000000000, 0.000000000000000, 1.00000000000000 ) );
#333 = DIRECTION( '', ( 1.00000000000000, 0.000000000000000, 0.000000000000000 ) );
#334 = CARTESIAN_POINT( '', ( 0.000000000000000, 0.000000000000000, 22.2109857473053 ) );
#335 = DIRECTION( '', ( 0.000000000000000, 0.000000000000000, -1.00000000000000 ) );
#336 = DIRECTION( '', ( -1.00000000000000, 0.000000000000000, 0.000000000000000 ) );
#337 = CARTESIAN_POINT( '', ( 0.000000000000000, 0.000000000000000, 0.000000000000000 ) );
#338 = DIRECTION( '', ( 0.000000000000000, 0.000000000000000, 1.00000000000000 ) );
#339 = DIRECTION( '', ( 1.00000000000000, 0.000000000000000, 0.000000000000000 ) );
#340 = CARTESIAN_POINT( '', ( 0.000000000000000, 0.000000000000000, 25.0000000000000 ) );
#341 = DIRECTION( '', ( 0.000000000000000, 0.000000000000000, 1.00000000000000 ) );
#342 = DIRECTION( '', ( 0.000000000000000, -1.00000000000000, 0.000000000000000 ) );
#343 = CARTESIAN_POINT( '', ( 0.000000000000000, 0.000000000000000, 30.5090082779363 ) );
#344 = DIRECTION( '', ( 0.000000000000000, 0.000000000000000, -1.00000000000000 ) );
#345 = DIRECTION( '', ( -1.00000000000000, 0.000000000000000, 0.000000000000000 ) );
ENDSEC;
END-ISO-10303-21;
