ISO-10303-21;
HEADER;
FILE_DESCRIPTION( ( 'Unknown' ), '1' );
FILE_NAME( '//SBS2003/HD_Usb/Disegni/10_GAMM_CD/2- Gamm_STEP/03 - MANOPOLE/SB/7111060_SB32_M08.stp', 'Unknown', ( 'Unknown' ), ( 'Unknown' ), 'PSStep 11.0', 'Unknown', '  ' );
FILE_SCHEMA( ( 'AUTOMOTIVE_DESIGN { 1 0 10303 214 1 1 1 1 }' ) );
ENDSEC;
DATA;
#1 = MECHANICAL_DESIGN_GEOMETRIC_PRESENTATION_REPRESENTATION( ' ', ( #10, #11, #12, #13, #14 ), #6 );
#2 = PRODUCT_DEFINITION_CONTEXT( '', #15, 'design' );
#3 = APPLICATION_PROTOCOL_DEFINITION( 'INTERNATIONAL STANDARD', 'automotive_design', 2001, #15 );
#4 = PRODUCT_CATEGORY_RELATIONSHIP( 'NONE', 'NONE', #16, #17 );
#5 = SHAPE_DEFINITION_REPRESENTATION( #18, #19 );
#6 =  ( GEOMETRIC_REPRESENTATION_CONTEXT( 3 )GLOBAL_UNCERTAINTY_ASSIGNED_CONTEXT( ( #22 ) )GLOBAL_UNIT_ASSIGNED_CONTEXT( ( #24, #25, #26 ) )REPRESENTATION_CONTEXT( 'NONE', 'WORKSPACE' ) );
#10 = STYLED_ITEM( '', ( #28 ), #29 );
#11 = STYLED_ITEM( '', ( #30 ), #31 );
#12 = STYLED_ITEM( '', ( #32 ), #33 );
#13 = STYLED_ITEM( '', ( #34 ), #35 );
#14 = STYLED_ITEM( '', ( #36 ), #37 );
#15 = APPLICATION_CONTEXT( 'core data for automotive mechanical design processes' );
#16 = PRODUCT_CATEGORY( 'part', 'NONE' );
#17 = PRODUCT_RELATED_PRODUCT_CATEGORY( 'detail', ' ', ( #38 ) );
#18 = PRODUCT_DEFINITION_SHAPE( 'NONE', 'NONE', #39 );
#19 = ADVANCED_BREP_SHAPE_REPRESENTATION( '1', ( #40, #41 ), #6 );
#22 = UNCERTAINTY_MEASURE_WITH_UNIT( LENGTH_MEASURE( 0.00100000000000000 ), #24, '', '' );
#24 =  ( CONVERSION_BASED_UNIT( 'MILLIMETRE', #44 )LENGTH_UNIT(  )NAMED_UNIT( #47 ) );
#25 =  ( NAMED_UNIT( #49 )PLANE_ANGLE_UNIT(  )SI_UNIT( $, .RADIAN. ) );
#26 =  ( NAMED_UNIT( #49 )SI_UNIT( $, .STERADIAN. )SOLID_ANGLE_UNIT(  ) );
#28 = PRESENTATION_STYLE_ASSIGNMENT( ( #55 ) );
#29 = ADVANCED_FACE( '', ( #56 ), #57, .T. );
#30 = PRESENTATION_STYLE_ASSIGNMENT( ( #58 ) );
#31 = ADVANCED_FACE( '', ( #59 ), #60, .F. );
#32 = PRESENTATION_STYLE_ASSIGNMENT( ( #61 ) );
#33 = ADVANCED_FACE( '', ( #62, #63 ), #64, .F. );
#34 = PRESENTATION_STYLE_ASSIGNMENT( ( #65 ) );
#35 = ADVANCED_FACE( '', ( #66, #67 ), #68, .F. );
#36 = PRESENTATION_STYLE_ASSIGNMENT( ( #69 ) );
#37 = ADVANCED_FACE( '', ( #70, #71 ), #72, .T. );
#38 = PRODUCT( '1', '1', 'PART-1-DESC', ( #73 ) );
#39 = PRODUCT_DEFINITION( 'NONE', 'NONE', #74, #2 );
#40 = MANIFOLD_SOLID_BREP( '1', #75 );
#41 = AXIS2_PLACEMENT_3D( '', #76, #77, #78 );
#44 = LENGTH_MEASURE_WITH_UNIT( LENGTH_MEASURE( 1.00000000000000 ), #79 );
#47 = DIMENSIONAL_EXPONENTS( 1.00000000000000, 0.000000000000000, 0.000000000000000, 0.000000000000000, 0.000000000000000, 0.000000000000000, 0.000000000000000 );
#49 = DIMENSIONAL_EXPONENTS( 0.000000000000000, 0.000000000000000, 0.000000000000000, 0.000000000000000, 0.000000000000000, 0.000000000000000, 0.000000000000000 );
#55 = SURFACE_STYLE_USAGE( .BOTH., #80 );
#56 = FACE_OUTER_BOUND( '', #81, .T. );
#57 = SPHERICAL_SURFACE( '', #82, 16.0000000000000 );
#58 = SURFACE_STYLE_USAGE( .BOTH., #83 );
#59 = FACE_OUTER_BOUND( '', #84, .T. );
#60 = PLANE( '', #85 );
#61 = SURFACE_STYLE_USAGE( .BOTH., #86 );
#62 = FACE_BOUND( '', #87, .T. );
#63 = FACE_OUTER_BOUND( '', #88, .T. );
#64 = CONICAL_SURFACE( '', #89, 3.90000000000000, 0.785398163397448 );
#65 = SURFACE_STYLE_USAGE( .BOTH., #90 );
#66 = FACE_OUTER_BOUND( '', #91, .T. );
#67 = FACE_OUTER_BOUND( '', #92, .T. );
#68 = CYLINDRICAL_SURFACE( '', #93, 3.40000000000000 );
#69 = SURFACE_STYLE_USAGE( .BOTH., #94 );
#70 = FACE_BOUND( '', #95, .T. );
#71 = FACE_OUTER_BOUND( '', #96, .T. );
#72 = PLANE( '', #97 );
#73 = PRODUCT_CONTEXT( '', #15, 'mechanical' );
#74 = PRODUCT_DEFINITION_FORMATION_WITH_SPECIFIED_SOURCE( ' ', 'NONE', #38, .NOT_KNOWN. );
#75 = CLOSED_SHELL( '', ( #29, #33, #31, #35, #37 ) );
#76 = CARTESIAN_POINT( '', ( 0.000000000000000, 0.000000000000000, 0.000000000000000 ) );
#77 = DIRECTION( '', ( 0.000000000000000, 0.000000000000000, 1.00000000000000 ) );
#78 = DIRECTION( '', ( 1.00000000000000, 0.000000000000000, 0.000000000000000 ) );
#79 =  ( LENGTH_UNIT(  )NAMED_UNIT( #47 )SI_UNIT( .MILLI., .METRE. ) );
#80 = SURFACE_SIDE_STYLE( '', ( #99 ) );
#81 = EDGE_LOOP( '', ( #100 ) );
#82 = AXIS2_PLACEMENT_3D( '', #101, #102, #103 );
#83 = SURFACE_SIDE_STYLE( '', ( #104 ) );
#84 = EDGE_LOOP( '', ( #105 ) );
#85 = AXIS2_PLACEMENT_3D( '', #106, #107, #108 );
#86 = SURFACE_SIDE_STYLE( '', ( #109 ) );
#87 = EDGE_LOOP( '', ( #110 ) );
#88 = EDGE_LOOP( '', ( #111 ) );
#89 = AXIS2_PLACEMENT_3D( '', #112, #113, #114 );
#90 = SURFACE_SIDE_STYLE( '', ( #115 ) );
#91 = EDGE_LOOP( '', ( #116 ) );
#92 = EDGE_LOOP( '', ( #117 ) );
#93 = AXIS2_PLACEMENT_3D( '', #118, #119, #120 );
#94 = SURFACE_SIDE_STYLE( '', ( #121 ) );
#95 = EDGE_LOOP( '', ( #122 ) );
#96 = EDGE_LOOP( '', ( #123 ) );
#97 = AXIS2_PLACEMENT_3D( '', #124, #125, #126 );
#99 = SURFACE_STYLE_FILL_AREA( #127 );
#100 = ORIENTED_EDGE( '', *, *, #128, .T. );
#101 = CARTESIAN_POINT( '', ( 0.000000000000000, 0.000000000000000, 3.67381906146713E-015 ) );
#102 = DIRECTION( '', ( 0.000000000000000, 0.000000000000000, 1.00000000000000 ) );
#103 = DIRECTION( '', ( -6.12303176911189E-017, -1.00000000000000, 0.000000000000000 ) );
#104 = SURFACE_STYLE_FILL_AREA( #129 );
#105 = ORIENTED_EDGE( '', *, *, #130, .T. );
#106 = CARTESIAN_POINT( '', ( 3.30643715532042E-015, 0.000000000000000, 5.00000000000000 ) );
#107 = DIRECTION( '', ( 0.000000000000000, 0.000000000000000, 1.00000000000000 ) );
#108 = DIRECTION( '', ( 1.00000000000000, 0.000000000000000, 0.000000000000000 ) );
#109 = SURFACE_STYLE_FILL_AREA( #131 );
#110 = ORIENTED_EDGE( '', *, *, #132, .F. );
#111 = ORIENTED_EDGE( '', *, *, #133, .F. );
#112 = CARTESIAN_POINT( '', ( 3.30643715532042E-015, 0.000000000000000, -13.0000000000000 ) );
#113 = DIRECTION( '', ( -0.000000000000000, 0.000000000000000, -1.00000000000000 ) );
#114 = DIRECTION( '', ( -1.00000000000000, 0.000000000000000, 0.000000000000000 ) );
#115 = SURFACE_STYLE_FILL_AREA( #134 );
#116 = ORIENTED_EDGE( '', *, *, #132, .T. );
#117 = ORIENTED_EDGE( '', *, *, #130, .F. );
#118 = CARTESIAN_POINT( '', ( 3.30643715532042E-015, 0.000000000000000, -13.0000000000000 ) );
#119 = DIRECTION( '', ( -0.000000000000000, 0.000000000000000, -1.00000000000000 ) );
#120 = DIRECTION( '', ( 0.000000000000000, 1.00000000000000, 0.000000000000000 ) );
#121 = SURFACE_STYLE_FILL_AREA( #135 );
#122 = ORIENTED_EDGE( '', *, *, #133, .T. );
#123 = ORIENTED_EDGE( '', *, *, #128, .F. );
#124 = CARTESIAN_POINT( '', ( 5.71118382646115E-016, 9.32737905308881, -13.0000000000000 ) );
#125 = DIRECTION( '', ( 0.000000000000000, 0.000000000000000, -1.00000000000000 ) );
#126 = DIRECTION( '', ( -1.00000000000000, 0.000000000000000, 0.000000000000000 ) );
#127 = FILL_AREA_STYLE( '', ( #136 ) );
#128 = EDGE_CURVE( '', #137, #137, #138, .T. );
#129 = FILL_AREA_STYLE( '', ( #139 ) );
#130 = EDGE_CURVE( '', #140, #140, #141, .T. );
#131 = FILL_AREA_STYLE( '', ( #142 ) );
#132 = EDGE_CURVE( '', #143, #143, #144, .T. );
#133 = EDGE_CURVE( '', #145, #145, #146, .F. );
#134 = FILL_AREA_STYLE( '', ( #147 ) );
#135 = FILL_AREA_STYLE( '', ( #148 ) );
#136 = FILL_AREA_STYLE_COLOUR( '', #149 );
#137 = VERTEX_POINT( '', #150 );
#138 = CIRCLE( '', #151, 9.32737905308881 );
#139 = FILL_AREA_STYLE_COLOUR( '', #152 );
#140 = VERTEX_POINT( '', #153 );
#141 = CIRCLE( '', #154, 3.40000000000000 );
#142 = FILL_AREA_STYLE_COLOUR( '', #155 );
#143 = VERTEX_POINT( '', #156 );
#144 = CIRCLE( '', #157, 3.40000000000000 );
#145 = VERTEX_POINT( '', #158 );
#146 = CIRCLE( '', #159, 3.90000000000000 );
#147 = FILL_AREA_STYLE_COLOUR( '', #160 );
#148 = FILL_AREA_STYLE_COLOUR( '', #161 );
#149 = COLOUR_RGB( '', 0.200000002980232, 0.200000002980232, 0.200000002980232 );
#150 = CARTESIAN_POINT( '', ( 9.32737905308881, 0.000000000000000, -13.0000000000000 ) );
#151 = AXIS2_PLACEMENT_3D( '', #162, #163, #164 );
#152 = COLOUR_RGB( '', 0.200000002980232, 0.200000002980232, 0.200000002980232 );
#153 = CARTESIAN_POINT( '', ( 3.30643715532042E-015, 3.40000000000000, 5.00000000000000 ) );
#154 = AXIS2_PLACEMENT_3D( '', #165, #166, #167 );
#155 = COLOUR_RGB( '', 0.200000002980232, 0.200000002980232, 0.200000002980232 );
#156 = CARTESIAN_POINT( '', ( -3.40000000000000, 0.000000000000000, -12.5000000000000 ) );
#157 = AXIS2_PLACEMENT_3D( '', #168, #169, #170 );
#158 = CARTESIAN_POINT( '', ( -3.90000000000000, 0.000000000000000, -13.0000000000000 ) );
#159 = AXIS2_PLACEMENT_3D( '', #171, #172, #173 );
#160 = COLOUR_RGB( '', 0.752941191196442, 0.752941191196442, 0.752941191196442 );
#161 = COLOUR_RGB( '', 0.200000002980232, 0.200000002980232, 0.200000002980232 );
#162 = CARTESIAN_POINT( '', ( 0.000000000000000, 0.000000000000000, -13.0000000000000 ) );
#163 = DIRECTION( '', ( 0.000000000000000, 0.000000000000000, 1.00000000000000 ) );
#164 = DIRECTION( '', ( 1.00000000000000, 0.000000000000000, 0.000000000000000 ) );
#165 = CARTESIAN_POINT( '', ( 3.30643715532042E-015, 0.000000000000000, 5.00000000000000 ) );
#166 = DIRECTION( '', ( 0.000000000000000, 0.000000000000000, -1.00000000000000 ) );
#167 = DIRECTION( '', ( 0.000000000000000, 1.00000000000000, 0.000000000000000 ) );
#168 = CARTESIAN_POINT( '', ( 3.30643715532042E-015, 0.000000000000000, -12.5000000000000 ) );
#169 = DIRECTION( '', ( 0.000000000000000, 0.000000000000000, -1.00000000000000 ) );
#170 = DIRECTION( '', ( -1.00000000000000, 0.000000000000000, 0.000000000000000 ) );
#171 = CARTESIAN_POINT( '', ( 3.30643715532042E-015, 0.000000000000000, -13.0000000000000 ) );
#172 = DIRECTION( '', ( 0.000000000000000, 0.000000000000000, -1.00000000000000 ) );
#173 = DIRECTION( '', ( -1.00000000000000, 0.000000000000000, 0.000000000000000 ) );
ENDSEC;
END-ISO-10303-21;
