ISO-10303-21;
HEADER;
FILE_DESCRIPTION( ( 'Unknown' ), '1' );
FILE_NAME( '//SBS2003/HD_Usb/Disegni/08_LIB/Users_3D/PROD_GAMM_3D/SBA/7112070_SBA40_M10.stp', 'Unknown', ( 'Unknown' ), ( 'Unknown' ), 'PSStep 11.0', 'Unknown', '  ' );
FILE_SCHEMA( ( 'AUTOMOTIVE_DESIGN { 1 0 10303 214 1 1 1 1 }' ) );
ENDSEC;
DATA;
#1 = MECHANICAL_DESIGN_GEOMETRIC_PRESENTATION_REPRESENTATION( ' ', ( #10, #11, #12, #13, #14, #15 ), #6 );
#2 = PRODUCT_DEFINITION_CONTEXT( '', #16, 'design' );
#3 = APPLICATION_PROTOCOL_DEFINITION( 'INTERNATIONAL STANDARD', 'automotive_design', 2001, #16 );
#4 = PRODUCT_CATEGORY_RELATIONSHIP( 'NONE', 'NONE', #17, #18 );
#5 = SHAPE_DEFINITION_REPRESENTATION( #19, #20 );
#6 =  ( GEOMETRIC_REPRESENTATION_CONTEXT( 3 )GLOBAL_UNCERTAINTY_ASSIGNED_CONTEXT( ( #23 ) )GLOBAL_UNIT_ASSIGNED_CONTEXT( ( #25, #26, #27 ) )REPRESENTATION_CONTEXT( 'NONE', 'WORKSPACE' ) );
#10 = STYLED_ITEM( '', ( #29 ), #30 );
#11 = STYLED_ITEM( '', ( #31 ), #32 );
#12 = STYLED_ITEM( '', ( #33 ), #34 );
#13 = STYLED_ITEM( '', ( #35 ), #36 );
#14 = STYLED_ITEM( '', ( #37 ), #38 );
#15 = STYLED_ITEM( '', ( #39 ), #40 );
#16 = APPLICATION_CONTEXT( 'core data for automotive mechanical design processes' );
#17 = PRODUCT_CATEGORY( 'part', 'NONE' );
#18 = PRODUCT_RELATED_PRODUCT_CATEGORY( 'detail', ' ', ( #41 ) );
#19 = PRODUCT_DEFINITION_SHAPE( 'NONE', 'NONE', #42 );
#20 = ADVANCED_BREP_SHAPE_REPRESENTATION( '1', ( #43, #44 ), #6 );
#23 = UNCERTAINTY_MEASURE_WITH_UNIT( LENGTH_MEASURE( 0.00100000000000000 ), #25, '', '' );
#25 =  ( CONVERSION_BASED_UNIT( 'MILLIMETRE', #47 )LENGTH_UNIT(  )NAMED_UNIT( #50 ) );
#26 =  ( NAMED_UNIT( #52 )PLANE_ANGLE_UNIT(  )SI_UNIT( $, .RADIAN. ) );
#27 =  ( NAMED_UNIT( #52 )SI_UNIT( $, .STERADIAN. )SOLID_ANGLE_UNIT(  ) );
#29 = PRESENTATION_STYLE_ASSIGNMENT( ( #58 ) );
#30 = ADVANCED_FACE( '', ( #59, #60 ), #61, .F. );
#31 = PRESENTATION_STYLE_ASSIGNMENT( ( #62 ) );
#32 = ADVANCED_FACE( '', ( #63, #64 ), #65, .F. );
#33 = PRESENTATION_STYLE_ASSIGNMENT( ( #66 ) );
#34 = ADVANCED_FACE( '', ( #67, #68 ), #69, .F. );
#35 = PRESENTATION_STYLE_ASSIGNMENT( ( #70 ) );
#36 = ADVANCED_FACE( '', ( #71, #72 ), #73, .F. );
#37 = PRESENTATION_STYLE_ASSIGNMENT( ( #74 ) );
#38 = ADVANCED_FACE( '', ( #75, #76 ), #77, .F. );
#39 = PRESENTATION_STYLE_ASSIGNMENT( ( #78 ) );
#40 = ADVANCED_FACE( '', ( #79 ), #80, .T. );
#41 = PRODUCT( '1', '1', 'PART-1-DESC', ( #81 ) );
#42 = PRODUCT_DEFINITION( 'NONE', 'NONE', #82, #2 );
#43 = MANIFOLD_SOLID_BREP( '1', #83 );
#44 = AXIS2_PLACEMENT_3D( '', #84, #85, #86 );
#47 = LENGTH_MEASURE_WITH_UNIT( LENGTH_MEASURE( 1.00000000000000 ), #87 );
#50 = DIMENSIONAL_EXPONENTS( 1.00000000000000, 0.000000000000000, 0.000000000000000, 0.000000000000000, 0.000000000000000, 0.000000000000000, 0.000000000000000 );
#52 = DIMENSIONAL_EXPONENTS( 0.000000000000000, 0.000000000000000, 0.000000000000000, 0.000000000000000, 0.000000000000000, 0.000000000000000, 0.000000000000000 );
#58 = SURFACE_STYLE_USAGE( .BOTH., #88 );
#59 = FACE_OUTER_BOUND( '', #89, .T. );
#60 = FACE_OUTER_BOUND( '', #90, .T. );
#61 = CYLINDRICAL_SURFACE( '', #91, 4.18800000000000 );
#62 = SURFACE_STYLE_USAGE( .BOTH., #92 );
#63 = FACE_BOUND( '', #93, .T. );
#64 = FACE_OUTER_BOUND( '', #94, .T. );
#65 = PLANE( '', #95 );
#66 = SURFACE_STYLE_USAGE( .BOTH., #96 );
#67 = FACE_BOUND( '', #97, .T. );
#68 = FACE_OUTER_BOUND( '', #98, .T. );
#69 = CONICAL_SURFACE( '', #99, 5.18800000000000, 0.785398163397448 );
#70 = SURFACE_STYLE_USAGE( .BOTH., #100 );
#71 = FACE_OUTER_BOUND( '', #101, .T. );
#72 = FACE_OUTER_BOUND( '', #102, .T. );
#73 = CYLINDRICAL_SURFACE( '', #103, 4.18800000000000 );
#74 = SURFACE_STYLE_USAGE( .BOTH., #104 );
#75 = FACE_OUTER_BOUND( '', #105, .T. );
#76 = FACE_BOUND( '', #106, .T. );
#77 = CONICAL_SURFACE( '', #107, 4.18800000000000, 1.02974425867665 );
#78 = SURFACE_STYLE_USAGE( .BOTH., #108 );
#79 = FACE_OUTER_BOUND( '', #109, .T. );
#80 = SPHERICAL_SURFACE( '', #110, 20.1351351351351 );
#81 = PRODUCT_CONTEXT( '', #16, 'mechanical' );
#82 = PRODUCT_DEFINITION_FORMATION_WITH_SPECIFIED_SOURCE( ' ', 'NONE', #41, .NOT_KNOWN. );
#83 = CLOSED_SHELL( '', ( #36, #34, #38, #30, #40, #32 ) );
#84 = CARTESIAN_POINT( '', ( 0.000000000000000, 0.000000000000000, 0.000000000000000 ) );
#85 = DIRECTION( '', ( 0.000000000000000, 0.000000000000000, 1.00000000000000 ) );
#86 = DIRECTION( '', ( 1.00000000000000, 0.000000000000000, 0.000000000000000 ) );
#87 =  ( LENGTH_UNIT(  )NAMED_UNIT( #50 )SI_UNIT( .MILLI., .METRE. ) );
#88 = SURFACE_SIDE_STYLE( '', ( #112 ) );
#89 = EDGE_LOOP( '', ( #113 ) );
#90 = EDGE_LOOP( '', ( #114 ) );
#91 = AXIS2_PLACEMENT_3D( '', #115, #116, #117 );
#92 = SURFACE_SIDE_STYLE( '', ( #118 ) );
#93 = EDGE_LOOP( '', ( #119 ) );
#94 = EDGE_LOOP( '', ( #120 ) );
#95 = AXIS2_PLACEMENT_3D( '', #121, #122, #123 );
#96 = SURFACE_SIDE_STYLE( '', ( #124 ) );
#97 = EDGE_LOOP( '', ( #125 ) );
#98 = EDGE_LOOP( '', ( #126 ) );
#99 = AXIS2_PLACEMENT_3D( '', #127, #128, #129 );
#100 = SURFACE_SIDE_STYLE( '', ( #130 ) );
#101 = EDGE_LOOP( '', ( #131 ) );
#102 = EDGE_LOOP( '', ( #132 ) );
#103 = AXIS2_PLACEMENT_3D( '', #133, #134, #135 );
#104 = SURFACE_SIDE_STYLE( '', ( #136 ) );
#105 = EDGE_LOOP( '', ( #137 ) );
#106 = VERTEX_LOOP( '', #138 );
#107 = AXIS2_PLACEMENT_3D( '', #139, #140, #141 );
#108 = SURFACE_SIDE_STYLE( '', ( #142 ) );
#109 = EDGE_LOOP( '', ( #143 ) );
#110 = AXIS2_PLACEMENT_3D( '', #144, #145, #146 );
#112 = SURFACE_STYLE_FILL_AREA( #147 );
#113 = ORIENTED_EDGE( '', *, *, #148, .T. );
#114 = ORIENTED_EDGE( '', *, *, #149, .F. );
#115 = CARTESIAN_POINT( '', ( 0.000000000000000, 0.000000000000000, 0.000000000000000 ) );
#116 = DIRECTION( '', ( -0.000000000000000, 0.000000000000000, -1.00000000000000 ) );
#117 = DIRECTION( '', ( 0.000000000000000, 1.00000000000000, 0.000000000000000 ) );
#118 = SURFACE_STYLE_FILL_AREA( #150 );
#119 = ORIENTED_EDGE( '', *, *, #151, .T. );
#120 = ORIENTED_EDGE( '', *, *, #152, .F. );
#121 = CARTESIAN_POINT( '', ( 3.03030968125549E-015, 0.000000000000000, 0.000000000000000 ) );
#122 = DIRECTION( '', ( 0.000000000000000, 0.000000000000000, 1.00000000000000 ) );
#123 = DIRECTION( '', ( 1.00000000000000, 0.000000000000000, 0.000000000000000 ) );
#124 = SURFACE_STYLE_FILL_AREA( #153 );
#125 = ORIENTED_EDGE( '', *, *, #148, .F. );
#126 = ORIENTED_EDGE( '', *, *, #151, .F. );
#127 = CARTESIAN_POINT( '', ( 0.000000000000000, 0.000000000000000, 0.000000000000000 ) );
#128 = DIRECTION( '', ( -0.000000000000000, 0.000000000000000, -1.00000000000000 ) );
#129 = DIRECTION( '', ( -1.00000000000000, 0.000000000000000, 0.000000000000000 ) );
#130 = SURFACE_STYLE_FILL_AREA( #154 );
#131 = ORIENTED_EDGE( '', *, *, #155, .T. );
#132 = ORIENTED_EDGE( '', *, *, #149, .T. );
#133 = CARTESIAN_POINT( '', ( 0.000000000000000, 0.000000000000000, 0.000000000000000 ) );
#134 = DIRECTION( '', ( -0.000000000000000, 0.000000000000000, -1.00000000000000 ) );
#135 = DIRECTION( '', ( 0.000000000000000, 1.00000000000000, 0.000000000000000 ) );
#136 = SURFACE_STYLE_FILL_AREA( #156 );
#137 = ORIENTED_EDGE( '', *, *, #155, .F. );
#138 = VERTEX_POINT( '', #157 );
#139 = CARTESIAN_POINT( '', ( 0.000000000000000, 0.000000000000000, 23.0000000000000 ) );
#140 = DIRECTION( '', ( 0.000000000000000, -0.000000000000000, -1.00000000000000 ) );
#141 = DIRECTION( '', ( 0.000000000000000, -1.00000000000000, 0.000000000000000 ) );
#142 = SURFACE_STYLE_FILL_AREA( #158 );
#143 = ORIENTED_EDGE( '', *, *, #152, .T. );
#144 = CARTESIAN_POINT( '', ( 0.000000000000000, 0.000000000000000, 16.8648648648648 ) );
#145 = DIRECTION( '', ( 0.000000000000000, 0.000000000000000, 1.00000000000000 ) );
#146 = DIRECTION( '', ( 1.00000000000000, 0.000000000000000, 0.000000000000000 ) );
#147 = FILL_AREA_STYLE( '', ( #159 ) );
#148 = EDGE_CURVE( '', #160, #160, #161, .F. );
#149 = EDGE_CURVE( '', #162, #162, #163, .T. );
#150 = FILL_AREA_STYLE( '', ( #164 ) );
#151 = EDGE_CURVE( '', #165, #165, #166, .T. );
#152 = EDGE_CURVE( '', #167, #167, #168, .T. );
#153 = FILL_AREA_STYLE( '', ( #169 ) );
#154 = FILL_AREA_STYLE( '', ( #170 ) );
#155 = EDGE_CURVE( '', #171, #171, #172, .T. );
#156 = FILL_AREA_STYLE( '', ( #173 ) );
#157 = CARTESIAN_POINT( '', ( 0.000000000000000, 0.000000000000000, 25.5164042724874 ) );
#158 = FILL_AREA_STYLE( '', ( #174 ) );
#159 = FILL_AREA_STYLE_COLOUR( '', #175 );
#160 = VERTEX_POINT( '', #176 );
#161 = CIRCLE( '', #177, 4.18800000000000 );
#162 = VERTEX_POINT( '', #178 );
#163 = CIRCLE( '', #179, 4.18800000000000 );
#164 = FILL_AREA_STYLE_COLOUR( '', #180 );
#165 = VERTEX_POINT( '', #181 );
#166 = CIRCLE( '', #182, 5.18800000000000 );
#167 = VERTEX_POINT( '', #183 );
#168 = CIRCLE( '', #184, 11.0000000000000 );
#169 = FILL_AREA_STYLE_COLOUR( '', #185 );
#170 = FILL_AREA_STYLE_COLOUR( '', #186 );
#171 = VERTEX_POINT( '', #187 );
#172 = CIRCLE( '', #188, 4.18800000000000 );
#173 = FILL_AREA_STYLE_COLOUR( '', #189 );
#174 = FILL_AREA_STYLE_COLOUR( '', #190 );
#175 = COLOUR_RGB( '', 0.752941191196442, 0.752941191196442, 0.752941191196442 );
#176 = CARTESIAN_POINT( '', ( 4.18800000000000, 0.000000000000000, 1.00000000000000 ) );
#177 = AXIS2_PLACEMENT_3D( '', #191, #192, #193 );
#178 = CARTESIAN_POINT( '', ( 0.000000000000000, 4.18800000000000, 21.0000000000000 ) );
#179 = AXIS2_PLACEMENT_3D( '', #194, #195, #196 );
#180 = COLOUR_RGB( '', 0.200000002980232, 0.200000002980232, 0.200000002980232 );
#181 = CARTESIAN_POINT( '', ( 5.18800000000000, 0.000000000000000, 0.000000000000000 ) );
#182 = AXIS2_PLACEMENT_3D( '', #197, #198, #199 );
#183 = CARTESIAN_POINT( '', ( 11.0000000000000, 0.000000000000000, 0.000000000000000 ) );
#184 = AXIS2_PLACEMENT_3D( '', #200, #201, #202 );
#185 = COLOUR_RGB( '', 0.200000002980232, 0.200000002980232, 0.200000002980232 );
#186 = COLOUR_RGB( '', 0.200000002980232, 0.200000002980232, 0.200000002980232 );
#187 = CARTESIAN_POINT( '', ( 0.000000000000000, -4.18800000000000, 23.0000000000000 ) );
#188 = AXIS2_PLACEMENT_3D( '', #203, #204, #205 );
#189 = COLOUR_RGB( '', 0.200000002980232, 0.200000002980232, 0.200000002980232 );
#190 = COLOUR_RGB( '', 0.200000002980232, 0.200000002980232, 0.200000002980232 );
#191 = CARTESIAN_POINT( '', ( 0.000000000000000, 0.000000000000000, 1.00000000000000 ) );
#192 = DIRECTION( '', ( 0.000000000000000, 0.000000000000000, 1.00000000000000 ) );
#193 = DIRECTION( '', ( 1.00000000000000, 0.000000000000000, 0.000000000000000 ) );
#194 = CARTESIAN_POINT( '', ( 0.000000000000000, 0.000000000000000, 21.0000000000000 ) );
#195 = DIRECTION( '', ( 0.000000000000000, 0.000000000000000, -1.00000000000000 ) );
#196 = DIRECTION( '', ( 0.000000000000000, 1.00000000000000, 0.000000000000000 ) );
#197 = CARTESIAN_POINT( '', ( 0.000000000000000, 0.000000000000000, 0.000000000000000 ) );
#198 = DIRECTION( '', ( 0.000000000000000, 0.000000000000000, 1.00000000000000 ) );
#199 = DIRECTION( '', ( 1.00000000000000, 0.000000000000000, 0.000000000000000 ) );
#200 = CARTESIAN_POINT( '', ( 0.000000000000000, 0.000000000000000, 0.000000000000000 ) );
#201 = DIRECTION( '', ( 0.000000000000000, 0.000000000000000, 1.00000000000000 ) );
#202 = DIRECTION( '', ( 1.00000000000000, 0.000000000000000, 0.000000000000000 ) );
#203 = CARTESIAN_POINT( '', ( 0.000000000000000, 0.000000000000000, 23.0000000000000 ) );
#204 = DIRECTION( '', ( 0.000000000000000, 0.000000000000000, 1.00000000000000 ) );
#205 = DIRECTION( '', ( 0.000000000000000, -1.00000000000000, 0.000000000000000 ) );
ENDSEC;
END-ISO-10303-21;
