ISO-10303-21;
HEADER;
FILE_DESCRIPTION( ( 'Unknown' ), '1' );
FILE_NAME( '//SBS2003/HD_Usb/Disegni/08_LIB/Users_3D/PROD_GAMM_3D/MB/7113005_MB35.stp', 'Unknown', ( 'Unknown' ), ( 'Unknown' ), 'PSStep 11.0', 'Unknown', '  ' );
FILE_SCHEMA( ( 'AUTOMOTIVE_DESIGN { 1 0 10303 214 1 1 1 1 }' ) );
ENDSEC;
DATA;
#1 = MECHANICAL_DESIGN_GEOMETRIC_PRESENTATION_REPRESENTATION( ' ', ( #10, #11, #12, #13, #14, #15, #16, #17, #18 ), #6 );
#2 = PRODUCT_DEFINITION_CONTEXT( '', #19, 'design' );
#3 = APPLICATION_PROTOCOL_DEFINITION( 'INTERNATIONAL STANDARD', 'automotive_design', 2001, #19 );
#4 = PRODUCT_CATEGORY_RELATIONSHIP( 'NONE', 'NONE', #20, #21 );
#5 = SHAPE_DEFINITION_REPRESENTATION( #22, #23 );
#6 =  ( GEOMETRIC_REPRESENTATION_CONTEXT( 3 )GLOBAL_UNCERTAINTY_ASSIGNED_CONTEXT( ( #26 ) )GLOBAL_UNIT_ASSIGNED_CONTEXT( ( #28, #29, #30 ) )REPRESENTATION_CONTEXT( 'NONE', 'WORKSPACE' ) );
#10 = STYLED_ITEM( '', ( #32 ), #33 );
#11 = STYLED_ITEM( '', ( #34 ), #35 );
#12 = STYLED_ITEM( '', ( #36 ), #37 );
#13 = STYLED_ITEM( '', ( #38 ), #39 );
#14 = STYLED_ITEM( '', ( #40 ), #41 );
#15 = STYLED_ITEM( '', ( #42 ), #43 );
#16 = STYLED_ITEM( '', ( #44 ), #45 );
#17 = STYLED_ITEM( '', ( #46 ), #47 );
#18 = STYLED_ITEM( '', ( #48 ), #49 );
#19 = APPLICATION_CONTEXT( 'core data for automotive mechanical design processes' );
#20 = PRODUCT_CATEGORY( 'part', 'NONE' );
#21 = PRODUCT_RELATED_PRODUCT_CATEGORY( 'detail', ' ', ( #50 ) );
#22 = PRODUCT_DEFINITION_SHAPE( 'NONE', 'NONE', #51 );
#23 = ADVANCED_BREP_SHAPE_REPRESENTATION( '1', ( #52, #53 ), #6 );
#26 = UNCERTAINTY_MEASURE_WITH_UNIT( LENGTH_MEASURE( 0.00100000000000000 ), #28, '', '' );
#28 =  ( CONVERSION_BASED_UNIT( 'MILLIMETRE', #56 )LENGTH_UNIT(  )NAMED_UNIT( #59 ) );
#29 =  ( NAMED_UNIT( #61 )PLANE_ANGLE_UNIT(  )SI_UNIT( $, .RADIAN. ) );
#30 =  ( NAMED_UNIT( #61 )SI_UNIT( $, .STERADIAN. )SOLID_ANGLE_UNIT(  ) );
#32 = PRESENTATION_STYLE_ASSIGNMENT( ( #67 ) );
#33 = ADVANCED_FACE( '', ( #68, #69 ), #70, .F. );
#34 = PRESENTATION_STYLE_ASSIGNMENT( ( #71 ) );
#35 = ADVANCED_FACE( '', ( #72 ), #73, .T. );
#36 = PRESENTATION_STYLE_ASSIGNMENT( ( #74 ) );
#37 = ADVANCED_FACE( '', ( #75, #76 ), #77, .F. );
#38 = PRESENTATION_STYLE_ASSIGNMENT( ( #78 ) );
#39 = ADVANCED_FACE( '', ( #79, #80 ), #81, .F. );
#40 = PRESENTATION_STYLE_ASSIGNMENT( ( #82 ) );
#41 = ADVANCED_FACE( '', ( #83, #84 ), #85, .F. );
#42 = PRESENTATION_STYLE_ASSIGNMENT( ( #86 ) );
#43 = ADVANCED_FACE( '', ( #87, #88 ), #89, .T. );
#44 = PRESENTATION_STYLE_ASSIGNMENT( ( #90 ) );
#45 = ADVANCED_FACE( '', ( #91, #92 ), #93, .F. );
#46 = PRESENTATION_STYLE_ASSIGNMENT( ( #94 ) );
#47 = ADVANCED_FACE( '', ( #95, #96 ), #97, .T. );
#48 = PRESENTATION_STYLE_ASSIGNMENT( ( #98 ) );
#49 = ADVANCED_FACE( '', ( #99, #100 ), #101, .T. );
#50 = PRODUCT( '1', '1', 'PART-1-DESC', ( #102 ) );
#51 = PRODUCT_DEFINITION( 'NONE', 'NONE', #103, #2 );
#52 = MANIFOLD_SOLID_BREP( '1', #104 );
#53 = AXIS2_PLACEMENT_3D( '', #105, #106, #107 );
#56 = LENGTH_MEASURE_WITH_UNIT( LENGTH_MEASURE( 1.00000000000000 ), #108 );
#59 = DIMENSIONAL_EXPONENTS( 1.00000000000000, 0.000000000000000, 0.000000000000000, 0.000000000000000, 0.000000000000000, 0.000000000000000, 0.000000000000000 );
#61 = DIMENSIONAL_EXPONENTS( 0.000000000000000, 0.000000000000000, 0.000000000000000, 0.000000000000000, 0.000000000000000, 0.000000000000000, 0.000000000000000 );
#67 = SURFACE_STYLE_USAGE( .BOTH., #109 );
#68 = FACE_OUTER_BOUND( '', #110, .T. );
#69 = FACE_OUTER_BOUND( '', #111, .T. );
#70 = CYLINDRICAL_SURFACE( '', #112, 5.05300000000000 );
#71 = SURFACE_STYLE_USAGE( .BOTH., #113 );
#72 = FACE_OUTER_BOUND( '', #114, .T. );
#73 = SPHERICAL_SURFACE( '', #115, 40.0000000000000 );
#74 = SURFACE_STYLE_USAGE( .BOTH., #116 );
#75 = FACE_BOUND( '', #117, .T. );
#76 = FACE_OUTER_BOUND( '', #118, .T. );
#77 = CONICAL_SURFACE( '', #119, 5.55300000000000, 0.785398163397449 );
#78 = SURFACE_STYLE_USAGE( .BOTH., #120 );
#79 = FACE_BOUND( '', #121, .T. );
#80 = FACE_OUTER_BOUND( '', #122, .T. );
#81 = PLANE( '', #123 );
#82 = SURFACE_STYLE_USAGE( .BOTH., #124 );
#83 = FACE_OUTER_BOUND( '', #125, .T. );
#84 = FACE_OUTER_BOUND( '', #126, .T. );
#85 = CYLINDRICAL_SURFACE( '', #127, 5.05300000000000 );
#86 = SURFACE_STYLE_USAGE( .BOTH., #128 );
#87 = FACE_BOUND( '', #129, .T. );
#88 = FACE_OUTER_BOUND( '', #130, .T. );
#89 = CONICAL_SURFACE( '', #131, 11.5000000000000, 0.211322335554128 );
#90 = SURFACE_STYLE_USAGE( .BOTH., #132 );
#91 = FACE_OUTER_BOUND( '', #133, .T. );
#92 = FACE_BOUND( '', #134, .T. );
#93 = CONICAL_SURFACE( '', #135, 5.05300000000000, 1.02974425867665 );
#94 = SURFACE_STYLE_USAGE( .BOTH., #136 );
#95 = FACE_OUTER_BOUND( '', #137, .T. );
#96 = FACE_OUTER_BOUND( '', #138, .T. );
#97 = TOROIDAL_SURFACE( '', #139, 15.2088589663607, 2.00000000000000 );
#98 = SURFACE_STYLE_USAGE( .BOTH., #140 );
#99 = FACE_OUTER_BOUND( '', #141, .T. );
#100 = FACE_OUTER_BOUND( '', #142, .T. );
#101 = TOROIDAL_SURFACE( '', #143, 9.47943381013204, 2.50000000000000 );
#102 = PRODUCT_CONTEXT( '', #19, 'mechanical' );
#103 = PRODUCT_DEFINITION_FORMATION_WITH_SPECIFIED_SOURCE( ' ', 'NONE', #50, .NOT_KNOWN. );
#104 = CLOSED_SHELL( '', ( #41, #37, #45, #33, #49, #35, #39, #43, #47 ) );
#105 = CARTESIAN_POINT( '', ( 0.000000000000000, 0.000000000000000, 0.000000000000000 ) );
#106 = DIRECTION( '', ( 0.000000000000000, 0.000000000000000, 1.00000000000000 ) );
#107 = DIRECTION( '', ( 1.00000000000000, 0.000000000000000, 0.000000000000000 ) );
#108 =  ( LENGTH_UNIT(  )NAMED_UNIT( #59 )SI_UNIT( .MILLI., .METRE. ) );
#109 = SURFACE_SIDE_STYLE( '', ( #145 ) );
#110 = EDGE_LOOP( '', ( #146 ) );
#111 = EDGE_LOOP( '', ( #147 ) );
#112 = AXIS2_PLACEMENT_3D( '', #148, #149, #150 );
#113 = SURFACE_SIDE_STYLE( '', ( #151 ) );
#114 = EDGE_LOOP( '', ( #152 ) );
#115 = AXIS2_PLACEMENT_3D( '', #153, #154, #155 );
#116 = SURFACE_SIDE_STYLE( '', ( #156 ) );
#117 = EDGE_LOOP( '', ( #157 ) );
#118 = EDGE_LOOP( '', ( #158 ) );
#119 = AXIS2_PLACEMENT_3D( '', #159, #160, #161 );
#120 = SURFACE_SIDE_STYLE( '', ( #162 ) );
#121 = EDGE_LOOP( '', ( #163 ) );
#122 = EDGE_LOOP( '', ( #164 ) );
#123 = AXIS2_PLACEMENT_3D( '', #165, #166, #167 );
#124 = SURFACE_SIDE_STYLE( '', ( #168 ) );
#125 = EDGE_LOOP( '', ( #169 ) );
#126 = EDGE_LOOP( '', ( #170 ) );
#127 = AXIS2_PLACEMENT_3D( '', #171, #172, #173 );
#128 = SURFACE_SIDE_STYLE( '', ( #174 ) );
#129 = EDGE_LOOP( '', ( #175 ) );
#130 = EDGE_LOOP( '', ( #176 ) );
#131 = AXIS2_PLACEMENT_3D( '', #177, #178, #179 );
#132 = SURFACE_SIDE_STYLE( '', ( #180 ) );
#133 = EDGE_LOOP( '', ( #181 ) );
#134 = VERTEX_LOOP( '', #182 );
#135 = AXIS2_PLACEMENT_3D( '', #183, #184, #185 );
#136 = SURFACE_SIDE_STYLE( '', ( #186 ) );
#137 = EDGE_LOOP( '', ( #187 ) );
#138 = EDGE_LOOP( '', ( #188 ) );
#139 = AXIS2_PLACEMENT_3D( '', #189, #190, #191 );
#140 = SURFACE_SIDE_STYLE( '', ( #192 ) );
#141 = EDGE_LOOP( '', ( #193 ) );
#142 = EDGE_LOOP( '', ( #194 ) );
#143 = AXIS2_PLACEMENT_3D( '', #195, #196, #197 );
#145 = SURFACE_STYLE_FILL_AREA( #198 );
#146 = ORIENTED_EDGE( '', *, *, #199, .T. );
#147 = ORIENTED_EDGE( '', *, *, #200, .F. );
#148 = CARTESIAN_POINT( '', ( 0.000000000000000, 0.000000000000000, 0.000000000000000 ) );
#149 = DIRECTION( '', ( -0.000000000000000, 0.000000000000000, -1.00000000000000 ) );
#150 = DIRECTION( '', ( 0.000000000000000, 1.00000000000000, 0.000000000000000 ) );
#151 = SURFACE_STYLE_FILL_AREA( #201 );
#152 = ORIENTED_EDGE( '', *, *, #202, .T. );
#153 = CARTESIAN_POINT( '', ( 0.000000000000000, 0.000000000000000, -8.00000000000000 ) );
#154 = DIRECTION( '', ( 0.000000000000000, 0.000000000000000, 1.00000000000000 ) );
#155 = DIRECTION( '', ( 1.00000000000000, 0.000000000000000, 0.000000000000000 ) );
#156 = SURFACE_STYLE_FILL_AREA( #203 );
#157 = ORIENTED_EDGE( '', *, *, #199, .F. );
#158 = ORIENTED_EDGE( '', *, *, #204, .F. );
#159 = CARTESIAN_POINT( '', ( 0.000000000000000, 0.000000000000000, 0.000000000000000 ) );
#160 = DIRECTION( '', ( -0.000000000000000, 0.000000000000000, -1.00000000000000 ) );
#161 = DIRECTION( '', ( -1.00000000000000, 0.000000000000000, 0.000000000000000 ) );
#162 = SURFACE_STYLE_FILL_AREA( #205 );
#163 = ORIENTED_EDGE( '', *, *, #204, .T. );
#164 = ORIENTED_EDGE( '', *, *, #206, .T. );
#165 = CARTESIAN_POINT( '', ( 4.11522030224084E-015, 0.000000000000000, 0.000000000000000 ) );
#166 = DIRECTION( '', ( 0.000000000000000, 0.000000000000000, 1.00000000000000 ) );
#167 = DIRECTION( '', ( 1.00000000000000, 0.000000000000000, 0.000000000000000 ) );
#168 = SURFACE_STYLE_FILL_AREA( #207 );
#169 = ORIENTED_EDGE( '', *, *, #208, .T. );
#170 = ORIENTED_EDGE( '', *, *, #200, .T. );
#171 = CARTESIAN_POINT( '', ( 0.000000000000000, 0.000000000000000, 0.000000000000000 ) );
#172 = DIRECTION( '', ( -0.000000000000000, 0.000000000000000, -1.00000000000000 ) );
#173 = DIRECTION( '', ( 0.000000000000000, 1.00000000000000, 0.000000000000000 ) );
#174 = SURFACE_STYLE_FILL_AREA( #209 );
#175 = ORIENTED_EDGE( '', *, *, #210, .T. );
#176 = ORIENTED_EDGE( '', *, *, #211, .T. );
#177 = CARTESIAN_POINT( '', ( 0.000000000000000, 0.000000000000000, 0.000000000000000 ) );
#178 = DIRECTION( '', ( -0.000000000000000, -0.000000000000000, 1.00000000000000 ) );
#179 = DIRECTION( '', ( 1.00000000000000, 0.000000000000000, 0.000000000000000 ) );
#180 = SURFACE_STYLE_FILL_AREA( #212 );
#181 = ORIENTED_EDGE( '', *, *, #208, .F. );
#182 = VERTEX_POINT( '', #213 );
#183 = CARTESIAN_POINT( '', ( 0.000000000000000, 0.000000000000000, 25.0000000000000 ) );
#184 = DIRECTION( '', ( 0.000000000000000, -0.000000000000000, -1.00000000000000 ) );
#185 = DIRECTION( '', ( 0.000000000000000, -1.00000000000000, 0.000000000000000 ) );
#186 = SURFACE_STYLE_FILL_AREA( #214 );
#187 = ORIENTED_EDGE( '', *, *, #211, .F. );
#188 = ORIENTED_EDGE( '', *, *, #202, .F. );
#189 = CARTESIAN_POINT( '', ( 0.000000000000000, 0.000000000000000, 26.8237075702940 ) );
#190 = DIRECTION( '', ( 0.000000000000000, 0.000000000000000, -1.00000000000000 ) );
#191 = DIRECTION( '', ( -1.00000000000000, 0.000000000000000, 0.000000000000000 ) );
#192 = SURFACE_STYLE_FILL_AREA( #215 );
#193 = ORIENTED_EDGE( '', *, *, #206, .F. );
#194 = ORIENTED_EDGE( '', *, *, #210, .F. );
#195 = CARTESIAN_POINT( '', ( 0.000000000000000, 0.000000000000000, 2.50000000000000 ) );
#196 = DIRECTION( '', ( 0.000000000000000, 0.000000000000000, 1.00000000000000 ) );
#197 = DIRECTION( '', ( 1.00000000000000, 0.000000000000000, 0.000000000000000 ) );
#198 = FILL_AREA_STYLE( '', ( #216 ) );
#199 = EDGE_CURVE( '', #217, #217, #218, .F. );
#200 = EDGE_CURVE( '', #219, #219, #220, .T. );
#201 = FILL_AREA_STYLE( '', ( #221 ) );
#202 = EDGE_CURVE( '', #222, #222, #223, .F. );
#203 = FILL_AREA_STYLE( '', ( #224 ) );
#204 = EDGE_CURVE( '', #225, #225, #226, .T. );
#205 = FILL_AREA_STYLE( '', ( #227 ) );
#206 = EDGE_CURVE( '', #228, #228, #229, .F. );
#207 = FILL_AREA_STYLE( '', ( #230 ) );
#208 = EDGE_CURVE( '', #231, #231, #232, .T. );
#209 = FILL_AREA_STYLE( '', ( #233 ) );
#210 = EDGE_CURVE( '', #234, #234, #235, .F. );
#211 = EDGE_CURVE( '', #236, #236, #237, .T. );
#212 = FILL_AREA_STYLE( '', ( #238 ) );
#213 = CARTESIAN_POINT( '', ( 0.000000000000000, 0.000000000000000, 28.0361487079463 ) );
#214 = FILL_AREA_STYLE( '', ( #239 ) );
#215 = FILL_AREA_STYLE( '', ( #240 ) );
#216 = FILL_AREA_STYLE_COLOUR( '', #241 );
#217 = VERTEX_POINT( '', #242 );
#218 = CIRCLE( '', #243, 5.05300000000000 );
#219 = VERTEX_POINT( '', #244 );
#220 = CIRCLE( '', #245, 5.05300000000000 );
#221 = FILL_AREA_STYLE_COLOUR( '', #246 );
#222 = VERTEX_POINT( '', #247 );
#223 = CIRCLE( '', #248, 16.0093252277481 );
#224 = FILL_AREA_STYLE_COLOUR( '', #249 );
#225 = VERTEX_POINT( '', #250 );
#226 = CIRCLE( '', #251, 5.55300000000000 );
#227 = FILL_AREA_STYLE_COLOUR( '', #252 );
#228 = VERTEX_POINT( '', #253 );
#229 = CIRCLE( '', #254, 9.47943381013204 );
#230 = FILL_AREA_STYLE_COLOUR( '', #255 );
#231 = VERTEX_POINT( '', #256 );
#232 = CIRCLE( '', #257, 5.05300000000000 );
#233 = FILL_AREA_STYLE_COLOUR( '', #258 );
#234 = VERTEX_POINT( '', #259 );
#235 = CIRCLE( '', #260, 11.9238198246046 );
#236 = VERTEX_POINT( '', #261 );
#237 = CIRCLE( '', #262, 17.1643677779388 );
#238 = FILL_AREA_STYLE_COLOUR( '', #263 );
#239 = FILL_AREA_STYLE_COLOUR( '', #264 );
#240 = FILL_AREA_STYLE_COLOUR( '', #265 );
#241 = COLOUR_RGB( '', 0.752941191196442, 0.752941191196442, 0.752941191196442 );
#242 = CARTESIAN_POINT( '', ( 5.05300000000000, 0.000000000000000, 0.500000000000000 ) );
#243 = AXIS2_PLACEMENT_3D( '', #266, #267, #268 );
#244 = CARTESIAN_POINT( '', ( 0.000000000000000, 5.05300000000000, 20.0000000000000 ) );
#245 = AXIS2_PLACEMENT_3D( '', #269, #270, #271 );
#246 = COLOUR_RGB( '', 0.200000002980232, 0.200000002980232, 0.200000002980232 );
#247 = CARTESIAN_POINT( '', ( -16.0093252277481, 0.000000000000000, 28.6565342845200 ) );
#248 = AXIS2_PLACEMENT_3D( '', #272, #273, #274 );
#249 = COLOUR_RGB( '', 0.200000002980232, 0.200000002980232, 0.200000002980232 );
#250 = CARTESIAN_POINT( '', ( 5.55300000000000, 0.000000000000000, 0.000000000000000 ) );
#251 = AXIS2_PLACEMENT_3D( '', #275, #276, #277 );
#252 = COLOUR_RGB( '', 0.200000002980232, 0.200000002980232, 0.200000002980232 );
#253 = CARTESIAN_POINT( '', ( 9.47943381013204, 0.000000000000000, 0.000000000000000 ) );
#254 = AXIS2_PLACEMENT_3D( '', #278, #279, #280 );
#255 = COLOUR_RGB( '', 0.200000002980232, 0.200000002980232, 0.200000002980232 );
#256 = CARTESIAN_POINT( '', ( 0.000000000000000, -5.05300000000000, 25.0000000000000 ) );
#257 = AXIS2_PLACEMENT_3D( '', #281, #282, #283 );
#258 = COLOUR_RGB( '', 0.200000002980232, 0.200000002980232, 0.200000002980232 );
#259 = CARTESIAN_POINT( '', ( -11.9238198246046, 0.000000000000000, 1.97561749433175 ) );
#260 = AXIS2_PLACEMENT_3D( '', #284, #285, #286 );
#261 = CARTESIAN_POINT( '', ( -17.1643677779388, 0.000000000000000, 26.4042015657594 ) );
#262 = AXIS2_PLACEMENT_3D( '', #287, #288, #289 );
#263 = COLOUR_RGB( '', 0.200000002980232, 0.200000002980232, 0.200000002980232 );
#264 = COLOUR_RGB( '', 0.200000002980232, 0.200000002980232, 0.200000002980232 );
#265 = COLOUR_RGB( '', 0.200000002980232, 0.200000002980232, 0.200000002980232 );
#266 = CARTESIAN_POINT( '', ( 0.000000000000000, 0.000000000000000, 0.500000000000000 ) );
#267 = DIRECTION( '', ( 0.000000000000000, 0.000000000000000, 1.00000000000000 ) );
#268 = DIRECTION( '', ( 1.00000000000000, 0.000000000000000, 0.000000000000000 ) );
#269 = CARTESIAN_POINT( '', ( 0.000000000000000, 0.000000000000000, 20.0000000000000 ) );
#270 = DIRECTION( '', ( 0.000000000000000, 0.000000000000000, -1.00000000000000 ) );
#271 = DIRECTION( '', ( 0.000000000000000, 1.00000000000000, 0.000000000000000 ) );
#272 = CARTESIAN_POINT( '', ( 0.000000000000000, 0.000000000000000, 28.6565342845200 ) );
#273 = DIRECTION( '', ( 0.000000000000000, 0.000000000000000, -1.00000000000000 ) );
#274 = DIRECTION( '', ( -1.00000000000000, 0.000000000000000, 0.000000000000000 ) );
#275 = CARTESIAN_POINT( '', ( 0.000000000000000, 0.000000000000000, 0.000000000000000 ) );
#276 = DIRECTION( '', ( 0.000000000000000, 0.000000000000000, 1.00000000000000 ) );
#277 = DIRECTION( '', ( 1.00000000000000, 0.000000000000000, 0.000000000000000 ) );
#278 = CARTESIAN_POINT( '', ( 0.000000000000000, 0.000000000000000, 0.000000000000000 ) );
#279 = DIRECTION( '', ( 0.000000000000000, 0.000000000000000, 1.00000000000000 ) );
#280 = DIRECTION( '', ( 1.00000000000000, 0.000000000000000, 0.000000000000000 ) );
#281 = CARTESIAN_POINT( '', ( 0.000000000000000, 0.000000000000000, 25.0000000000000 ) );
#282 = DIRECTION( '', ( 0.000000000000000, 0.000000000000000, 1.00000000000000 ) );
#283 = DIRECTION( '', ( 0.000000000000000, -1.00000000000000, 0.000000000000000 ) );
#284 = CARTESIAN_POINT( '', ( 0.000000000000000, 0.000000000000000, 1.97561749433175 ) );
#285 = DIRECTION( '', ( 0.000000000000000, 0.000000000000000, -1.00000000000000 ) );
#286 = DIRECTION( '', ( -1.00000000000000, 0.000000000000000, 0.000000000000000 ) );
#287 = CARTESIAN_POINT( '', ( 0.000000000000000, 0.000000000000000, 26.4042015657594 ) );
#288 = DIRECTION( '', ( 0.000000000000000, 0.000000000000000, -1.00000000000000 ) );
#289 = DIRECTION( '', ( -1.00000000000000, 0.000000000000000, 0.000000000000000 ) );
ENDSEC;
END-ISO-10303-21;
