ISO-10303-21;
HEADER;
FILE_DESCRIPTION( ( 'Unknown' ), '1' );
FILE_NAME( 'E:/98-Dis_3D_per_controllo/IO/7114010_IO30_M10/7114010_IO30.stp', 'Unknown', ( 'Unknown' ), ( 'Unknown' ), 'PSStep 11.0', 'Unknown', '  ' );
FILE_SCHEMA( ( 'AUTOMOTIVE_DESIGN { 1 0 10303 214 1 1 1 1 }' ) );
ENDSEC;
DATA;
#1 = MECHANICAL_DESIGN_GEOMETRIC_PRESENTATION_REPRESENTATION( ' ', ( #10, #11, #12, #13, #14, #15, #16, #17, #18, #19, #20 ), #6 );
#2 = PRODUCT_DEFINITION_CONTEXT( '', #21, 'design' );
#3 = APPLICATION_PROTOCOL_DEFINITION( 'INTERNATIONAL STANDARD', 'automotive_design', 2001, #21 );
#4 = PRODUCT_CATEGORY_RELATIONSHIP( 'NONE', 'NONE', #22, #23 );
#5 = SHAPE_DEFINITION_REPRESENTATION( #24, #25 );
#6 =  ( GEOMETRIC_REPRESENTATION_CONTEXT( 3 )GLOBAL_UNCERTAINTY_ASSIGNED_CONTEXT( ( #28 ) )GLOBAL_UNIT_ASSIGNED_CONTEXT( ( #30, #31, #32 ) )REPRESENTATION_CONTEXT( 'NONE', 'WORKSPACE' ) );
#10 = STYLED_ITEM( '', ( #34 ), #35 );
#11 = STYLED_ITEM( '', ( #36 ), #37 );
#12 = STYLED_ITEM( '', ( #38 ), #39 );
#13 = STYLED_ITEM( '', ( #40 ), #41 );
#14 = STYLED_ITEM( '', ( #42 ), #43 );
#15 = STYLED_ITEM( '', ( #44 ), #45 );
#16 = STYLED_ITEM( '', ( #46 ), #47 );
#17 = STYLED_ITEM( '', ( #48 ), #49 );
#18 = STYLED_ITEM( '', ( #50 ), #51 );
#19 = STYLED_ITEM( '', ( #52 ), #53 );
#20 = STYLED_ITEM( '', ( #54 ), #55 );
#21 = APPLICATION_CONTEXT( 'core data for automotive mechanical design processes' );
#22 = PRODUCT_CATEGORY( 'part', 'NONE' );
#23 = PRODUCT_RELATED_PRODUCT_CATEGORY( 'detail', ' ', ( #56 ) );
#24 = PRODUCT_DEFINITION_SHAPE( 'NONE', 'NONE', #57 );
#25 = ADVANCED_BREP_SHAPE_REPRESENTATION( '1', ( #58, #59 ), #6 );
#28 = UNCERTAINTY_MEASURE_WITH_UNIT( LENGTH_MEASURE( 0.00100000000000000 ), #30, '', '' );
#30 =  ( CONVERSION_BASED_UNIT( 'MILLIMETRE', #62 )LENGTH_UNIT(  )NAMED_UNIT( #65 ) );
#31 =  ( NAMED_UNIT( #67 )PLANE_ANGLE_UNIT(  )SI_UNIT( $, .RADIAN. ) );
#32 =  ( NAMED_UNIT( #67 )SI_UNIT( $, .STERADIAN. )SOLID_ANGLE_UNIT(  ) );
#34 = PRESENTATION_STYLE_ASSIGNMENT( ( #73 ) );
#35 = ADVANCED_FACE( '', ( #74, #75 ), #76, .F. );
#36 = PRESENTATION_STYLE_ASSIGNMENT( ( #77 ) );
#37 = ADVANCED_FACE( '', ( #78, #79 ), #80, .F. );
#38 = PRESENTATION_STYLE_ASSIGNMENT( ( #81 ) );
#39 = ADVANCED_FACE( '', ( #82, #83 ), #84, .T. );
#40 = PRESENTATION_STYLE_ASSIGNMENT( ( #85 ) );
#41 = ADVANCED_FACE( '', ( #86, #87 ), #88, .F. );
#42 = PRESENTATION_STYLE_ASSIGNMENT( ( #89 ) );
#43 = ADVANCED_FACE( '', ( #90, #91 ), #92, .F. );
#44 = PRESENTATION_STYLE_ASSIGNMENT( ( #93 ) );
#45 = ADVANCED_FACE( '', ( #94, #95 ), #96, .T. );
#46 = PRESENTATION_STYLE_ASSIGNMENT( ( #97 ) );
#47 = ADVANCED_FACE( '', ( #98, #99 ), #100, .T. );
#48 = PRESENTATION_STYLE_ASSIGNMENT( ( #101 ) );
#49 = ADVANCED_FACE( '', ( #102, #103 ), #104, .T. );
#50 = PRESENTATION_STYLE_ASSIGNMENT( ( #105 ) );
#51 = ADVANCED_FACE( '', ( #106, #107 ), #108, .F. );
#52 = PRESENTATION_STYLE_ASSIGNMENT( ( #109 ) );
#53 = ADVANCED_FACE( '', ( #110 ), #111, .T. );
#54 = PRESENTATION_STYLE_ASSIGNMENT( ( #112 ) );
#55 = ADVANCED_FACE( '', ( #113, #114 ), #115, .F. );
#56 = PRODUCT( '1', '1', 'PART-1-DESC', ( #116 ) );
#57 = PRODUCT_DEFINITION( 'NONE', 'NONE', #117, #2 );
#58 = MANIFOLD_SOLID_BREP( '1', #118 );
#59 = AXIS2_PLACEMENT_3D( '', #119, #120, #121 );
#62 = LENGTH_MEASURE_WITH_UNIT( LENGTH_MEASURE( 1.00000000000000 ), #122 );
#65 = DIMENSIONAL_EXPONENTS( 1.00000000000000, 0.000000000000000, 0.000000000000000, 0.000000000000000, 0.000000000000000, 0.000000000000000, 0.000000000000000 );
#67 = DIMENSIONAL_EXPONENTS( 0.000000000000000, 0.000000000000000, 0.000000000000000, 0.000000000000000, 0.000000000000000, 0.000000000000000, 0.000000000000000 );
#73 = SURFACE_STYLE_USAGE( .BOTH., #123 );
#74 = FACE_OUTER_BOUND( '', #124, .T. );
#75 = FACE_BOUND( '', #125, .T. );
#76 = PLANE( '', #126 );
#77 = SURFACE_STYLE_USAGE( .BOTH., #127 );
#78 = FACE_OUTER_BOUND( '', #128, .T. );
#79 = FACE_OUTER_BOUND( '', #129, .T. );
#80 = CYLINDRICAL_SURFACE( '', #130, 4.18800000000000 );
#81 = SURFACE_STYLE_USAGE( .BOTH., #131 );
#82 = FACE_OUTER_BOUND( '', #132, .T. );
#83 = FACE_OUTER_BOUND( '', #133, .T. );
#84 = TOROIDAL_SURFACE( '', #134, 7.69362094058065, 0.500000000000000 );
#85 = SURFACE_STYLE_USAGE( .BOTH., #135 );
#86 = FACE_OUTER_BOUND( '', #136, .T. );
#87 = FACE_BOUND( '', #137, .T. );
#88 = CONICAL_SURFACE( '', #138, 4.18800000000000, 1.02974425867665 );
#89 = SURFACE_STYLE_USAGE( .BOTH., #139 );
#90 = FACE_BOUND( '', #140, .T. );
#91 = FACE_OUTER_BOUND( '', #141, .T. );
#92 = CONICAL_SURFACE( '', #142, 4.68800000000000, 0.785398163397448 );
#93 = SURFACE_STYLE_USAGE( .BOTH., #143 );
#94 = FACE_BOUND( '', #144, .T. );
#95 = FACE_OUTER_BOUND( '', #145, .T. );
#96 = PLANE( '', #146 );
#97 = SURFACE_STYLE_USAGE( .BOTH., #147 );
#98 = FACE_OUTER_BOUND( '', #148, .T. );
#99 = FACE_OUTER_BOUND( '', #149, .T. );
#100 = TOROIDAL_SURFACE( '', #150, 7.00000000000000, 1.00000000000000 );
#101 = SURFACE_STYLE_USAGE( .BOTH., #151 );
#102 = FACE_OUTER_BOUND( '', #152, .T. );
#103 = FACE_OUTER_BOUND( '', #153, .T. );
#104 = ( BOUNDED_SURFACE(  )B_SPLINE_SURFACE( 3, 3, ( ( #156, #157, #158, #159, #160, #161, #162 ), ( #163, #164, #165, #166, #167, #168, #169 ), ( #170, #171, #172, #173, #174, #175, #176 ), ( #177, #178, #179, #180, #181, #182, #183 ) ), .UNSPECIFIED., .F., .T., .F. )B_SPLINE_SURFACE_WITH_KNOTS( ( 4, 4 ), ( 4, 3, 4 ), ( 0.000000000000000, 6.28318530717959 ), ( -0.468876723534647, 0.0347189707136617, 0.538314664961971 ), .UNSPECIFIED. )GEOMETRIC_REPRESENTATION_ITEM(  )RATIONAL_B_SPLINE_SURFACE( ( ( 1.00000000000000, 0.333333333333333, 0.333333333333333, 1.00000000000000, 0.333333333333333, 0.333333333333333, 1.00000000000000 ), ( 0.917235349879665, 0.305745116626555, 0.305745116626555, 0.917235349879665, 0.305745116626555, 0.305745116626555, 0.917235349879665 ), ( 0.917235349879665, 0.305745116626555, 0.305745116626555, 0.917235349879665, 0.305745116626555, 0.305745116626555, 0.917235349879665 ), ( 1.00000000000000, 0.333333333333333, 0.333333333333333, 1.00000000000000, 0.333333333333333, 0.333333333333333, 1.00000000000000 ) ) )REPRESENTATION_ITEM( '' )SURFACE(  ) );
#105 = SURFACE_STYLE_USAGE( .BOTH., #189 );
#106 = FACE_OUTER_BOUND( '', #190, .T. );
#107 = FACE_OUTER_BOUND( '', #191, .T. );
#108 = CYLINDRICAL_SURFACE( '', #192, 6.00000000000000 );
#109 = SURFACE_STYLE_USAGE( .BOTH., #193 );
#110 = FACE_OUTER_BOUND( '', #194, .T. );
#111 = SPHERICAL_SURFACE( '', #195, 7.00000000000000 );
#112 = SURFACE_STYLE_USAGE( .BOTH., #196 );
#113 = FACE_OUTER_BOUND( '', #197, .T. );
#114 = FACE_OUTER_BOUND( '', #198, .T. );
#115 = CYLINDRICAL_SURFACE( '', #199, 4.18800000000000 );
#116 = PRODUCT_CONTEXT( '', #21, 'mechanical' );
#117 = PRODUCT_DEFINITION_FORMATION_WITH_SPECIFIED_SOURCE( ' ', 'NONE', #56, .NOT_KNOWN. );
#118 = CLOSED_SHELL( '', ( #37, #39, #41, #43, #55, #47, #45, #35, #49, #51, #53 ) );
#119 = CARTESIAN_POINT( '', ( 0.000000000000000, 0.000000000000000, 0.000000000000000 ) );
#120 = DIRECTION( '', ( 0.000000000000000, 0.000000000000000, 1.00000000000000 ) );
#121 = DIRECTION( '', ( 1.00000000000000, 0.000000000000000, 0.000000000000000 ) );
#122 =  ( LENGTH_UNIT(  )NAMED_UNIT( #65 )SI_UNIT( .MILLI., .METRE. ) );
#123 = SURFACE_SIDE_STYLE( '', ( #201 ) );
#124 = EDGE_LOOP( '', ( #202 ) );
#125 = EDGE_LOOP( '', ( #203 ) );
#126 = AXIS2_PLACEMENT_3D( '', #204, #205, #206 );
#127 = SURFACE_SIDE_STYLE( '', ( #207 ) );
#128 = EDGE_LOOP( '', ( #208 ) );
#129 = EDGE_LOOP( '', ( #209 ) );
#130 = AXIS2_PLACEMENT_3D( '', #210, #211, #212 );
#131 = SURFACE_SIDE_STYLE( '', ( #213 ) );
#132 = EDGE_LOOP( '', ( #214 ) );
#133 = EDGE_LOOP( '', ( #215 ) );
#134 = AXIS2_PLACEMENT_3D( '', #216, #217, #218 );
#135 = SURFACE_SIDE_STYLE( '', ( #219 ) );
#136 = EDGE_LOOP( '', ( #220 ) );
#137 = VERTEX_LOOP( '', #221 );
#138 = AXIS2_PLACEMENT_3D( '', #222, #223, #224 );
#139 = SURFACE_SIDE_STYLE( '', ( #225 ) );
#140 = EDGE_LOOP( '', ( #226 ) );
#141 = EDGE_LOOP( '', ( #227 ) );
#142 = AXIS2_PLACEMENT_3D( '', #228, #229, #230 );
#143 = SURFACE_SIDE_STYLE( '', ( #231 ) );
#144 = EDGE_LOOP( '', ( #232 ) );
#145 = EDGE_LOOP( '', ( #233 ) );
#146 = AXIS2_PLACEMENT_3D( '', #234, #235, #236 );
#147 = SURFACE_SIDE_STYLE( '', ( #237 ) );
#148 = EDGE_LOOP( '', ( #238 ) );
#149 = EDGE_LOOP( '', ( #239 ) );
#150 = AXIS2_PLACEMENT_3D( '', #240, #241, #242 );
#151 = SURFACE_SIDE_STYLE( '', ( #243 ) );
#152 = EDGE_LOOP( '', ( #244 ) );
#153 = EDGE_LOOP( '', ( #245 ) );
#156 = CARTESIAN_POINT( '', ( 6.01001767979711, 0.000000000000000, 61.5888281497621 ) );
#157 = CARTESIAN_POINT( '', ( 6.01001767979711, 12.0200353595942, 61.5888281497621 ) );
#158 = CARTESIAN_POINT( '', ( -6.01001767979712, 12.0200353595942, 61.5888281497621 ) );
#159 = CARTESIAN_POINT( '', ( -6.01001767979712, 0.000000000000000, 61.5888281497621 ) );
#160 = CARTESIAN_POINT( '', ( -6.01001767979712, -12.0200353595942, 61.5888281497621 ) );
#161 = CARTESIAN_POINT( '', ( 6.01001767979711, -12.0200353595942, 61.5888281497621 ) );
#162 = CARTESIAN_POINT( '', ( 6.01001767979711, 0.000000000000000, 61.5888281497621 ) );
#163 = CARTESIAN_POINT( '', ( 17.4408931603077, 0.000000000000000, 42.4461551471603 ) );
#164 = CARTESIAN_POINT( '', ( 17.4408931603077, 34.8817863206154, 42.4461551471603 ) );
#165 = CARTESIAN_POINT( '', ( -17.4408931603077, 34.8817863206154, 42.4461551471603 ) );
#166 = CARTESIAN_POINT( '', ( -17.4408931603077, 0.000000000000000, 42.4461551471602 ) );
#167 = CARTESIAN_POINT( '', ( -17.4408931603077, -34.8817863206154, 42.4461551471602 ) );
#168 = CARTESIAN_POINT( '', ( 17.4408931603077, -34.8817863206154, 42.4461551471602 ) );
#169 = CARTESIAN_POINT( '', ( 17.4408931603077, 0.000000000000000, 42.4461551471602 ) );
#170 = CARTESIAN_POINT( '', ( 18.2148281095462, 0.000000000000000, 20.1636986257211 ) );
#171 = CARTESIAN_POINT( '', ( 18.2148281095462, 36.4296562190924, 20.1636986257211 ) );
#172 = CARTESIAN_POINT( '', ( -18.2148281095462, 36.4296562190924, 20.1636986257211 ) );
#173 = CARTESIAN_POINT( '', ( -18.2148281095462, 0.000000000000000, 20.1636986257211 ) );
#174 = CARTESIAN_POINT( '', ( -18.2148281095462, -36.4296562190924, 20.1636986257211 ) );
#175 = CARTESIAN_POINT( '', ( 18.2148281095462, -36.4296562190924, 20.1636986257211 ) );
#176 = CARTESIAN_POINT( '', ( 18.2148281095462, 0.000000000000000, 20.1636986257211 ) );
#177 = CARTESIAN_POINT( '', ( 8.13965916164371, 0.000000000000000, 0.274057738900112 ) );
#178 = CARTESIAN_POINT( '', ( 8.13965916164371, 16.2793183232874, 0.274057738900112 ) );
#179 = CARTESIAN_POINT( '', ( -8.13965916164370, 16.2793183232874, 0.274057738900112 ) );
#180 = CARTESIAN_POINT( '', ( -8.13965916164370, 0.000000000000000, 0.274057738900112 ) );
#181 = CARTESIAN_POINT( '', ( -8.13965916164370, -16.2793183232874, 0.274057738900112 ) );
#182 = CARTESIAN_POINT( '', ( 8.13965916164371, -16.2793183232874, 0.274057738900112 ) );
#183 = CARTESIAN_POINT( '', ( 8.13965916164371, 0.000000000000000, 0.274057738900112 ) );
#189 = SURFACE_SIDE_STYLE( '', ( #246 ) );
#190 = EDGE_LOOP( '', ( #247 ) );
#191 = EDGE_LOOP( '', ( #248 ) );
#192 = AXIS2_PLACEMENT_3D( '', #249, #250, #251 );
#193 = SURFACE_SIDE_STYLE( '', ( #252 ) );
#194 = EDGE_LOOP( '', ( #253 ) );
#195 = AXIS2_PLACEMENT_3D( '', #254, #255, #256 );
#196 = SURFACE_SIDE_STYLE( '', ( #257 ) );
#197 = EDGE_LOOP( '', ( #258 ) );
#198 = EDGE_LOOP( '', ( #259 ) );
#199 = AXIS2_PLACEMENT_3D( '', #260, #261, #262 );
#201 = SURFACE_STYLE_FILL_AREA( #263 );
#202 = ORIENTED_EDGE( '', *, *, #264, .T. );
#203 = ORIENTED_EDGE( '', *, *, #265, .T. );
#204 = CARTESIAN_POINT( '', ( 3.68349988651457E-015, 0.000000000000000, -4.18141038496687E-014 ) );
#205 = DIRECTION( '', ( -4.51851065563303E-017, 0.000000000000000, 1.00000000000000 ) );
#206 = DIRECTION( '', ( 1.00000000000000, 0.000000000000000, 4.51851065563303E-017 ) );
#207 = SURFACE_STYLE_FILL_AREA( #266 );
#208 = ORIENTED_EDGE( '', *, *, #267, .T. );
#209 = ORIENTED_EDGE( '', *, *, #268, .T. );
#210 = CARTESIAN_POINT( '', ( 0.000000000000000, 0.000000000000000, 2.99999999999992 ) );
#211 = DIRECTION( '', ( -0.000000000000000, 0.000000000000000, -1.00000000000000 ) );
#212 = DIRECTION( '', ( 0.000000000000000, 1.00000000000000, 0.000000000000000 ) );
#213 = SURFACE_STYLE_FILL_AREA( #269 );
#214 = ORIENTED_EDGE( '', *, *, #264, .F. );
#215 = ORIENTED_EDGE( '', *, *, #270, .F. );
#216 = CARTESIAN_POINT( '', ( 1.28772359988271E-015, 0.000000000000000, 0.499999999999959 ) );
#217 = DIRECTION( '', ( -4.51851065563303E-017, 0.000000000000000, 1.00000000000000 ) );
#218 = DIRECTION( '', ( 1.00000000000000, 0.000000000000000, 4.51851065563303E-017 ) );
#219 = SURFACE_STYLE_FILL_AREA( #271 );
#220 = ORIENTED_EDGE( '', *, *, #267, .F. );
#221 = VERTEX_POINT( '', #272 );
#222 = CARTESIAN_POINT( '', ( 0.000000000000000, 0.000000000000000, 28.0000000000000 ) );
#223 = DIRECTION( '', ( 0.000000000000000, -0.000000000000000, -1.00000000000000 ) );
#224 = DIRECTION( '', ( 0.000000000000000, -1.00000000000000, 0.000000000000000 ) );
#225 = SURFACE_STYLE_FILL_AREA( #273 );
#226 = ORIENTED_EDGE( '', *, *, #274, .F. );
#227 = ORIENTED_EDGE( '', *, *, #275, .F. );
#228 = CARTESIAN_POINT( '', ( 0.000000000000000, 0.000000000000000, 2.99999999999992 ) );
#229 = DIRECTION( '', ( -0.000000000000000, 0.000000000000000, -1.00000000000000 ) );
#230 = DIRECTION( '', ( -1.00000000000000, 0.000000000000000, 0.000000000000000 ) );
#231 = SURFACE_STYLE_FILL_AREA( #276 );
#232 = ORIENTED_EDGE( '', *, *, #275, .T. );
#233 = ORIENTED_EDGE( '', *, *, #277, .F. );
#234 = CARTESIAN_POINT( '', ( 6.00000000000000, 0.000000000000000, 2.99999999999992 ) );
#235 = DIRECTION( '', ( 0.000000000000000, 0.000000000000000, -1.00000000000000 ) );
#236 = DIRECTION( '', ( -1.00000000000000, 0.000000000000000, 0.000000000000000 ) );
#237 = SURFACE_STYLE_FILL_AREA( #278 );
#238 = ORIENTED_EDGE( '', *, *, #279, .F. );
#239 = ORIENTED_EDGE( '', *, *, #265, .F. );
#240 = CARTESIAN_POINT( '', ( 0.000000000000000, 0.000000000000000, 0.999999999999959 ) );
#241 = DIRECTION( '', ( -4.51851065563303E-017, 0.000000000000000, 1.00000000000000 ) );
#242 = DIRECTION( '', ( 1.00000000000000, 0.000000000000000, 4.51851065563303E-017 ) );
#243 = SURFACE_STYLE_FILL_AREA( #280 );
#244 = ORIENTED_EDGE( '', *, *, #270, .T. );
#245 = ORIENTED_EDGE( '', *, *, #281, .F. );
#246 = SURFACE_STYLE_FILL_AREA( #282 );
#247 = ORIENTED_EDGE( '', *, *, #279, .T. );
#248 = ORIENTED_EDGE( '', *, *, #277, .T. );
#249 = CARTESIAN_POINT( '', ( 0.000000000000000, 0.000000000000000, 57.1500000000000 ) );
#250 = DIRECTION( '', ( -0.000000000000000, -0.000000000000000, -1.00000000000000 ) );
#251 = DIRECTION( '', ( 1.00000000000000, 0.000000000000000, 0.000000000000000 ) );
#252 = SURFACE_STYLE_FILL_AREA( #283 );
#253 = ORIENTED_EDGE( '', *, *, #281, .T. );
#254 = CARTESIAN_POINT( '', ( 0.000000000000000, 0.000000000000000, 58.0000000000000 ) );
#255 = DIRECTION( '', ( -4.51851065563303E-017, 0.000000000000000, 1.00000000000000 ) );
#256 = DIRECTION( '', ( 1.00000000000000, 0.000000000000000, 4.51851065563303E-017 ) );
#257 = SURFACE_STYLE_FILL_AREA( #284 );
#258 = ORIENTED_EDGE( '', *, *, #274, .T. );
#259 = ORIENTED_EDGE( '', *, *, #268, .F. );
#260 = CARTESIAN_POINT( '', ( 0.000000000000000, 0.000000000000000, 2.99999999999992 ) );
#261 = DIRECTION( '', ( -0.000000000000000, 0.000000000000000, -1.00000000000000 ) );
#262 = DIRECTION( '', ( 0.000000000000000, 1.00000000000000, 0.000000000000000 ) );
#263 = FILL_AREA_STYLE( '', ( #285 ) );
#264 = EDGE_CURVE( '', #286, #286, #287, .F. );
#265 = EDGE_CURVE( '', #288, #288, #289, .T. );
#266 = FILL_AREA_STYLE( '', ( #290 ) );
#267 = EDGE_CURVE( '', #291, #291, #292, .T. );
#268 = EDGE_CURVE( '', #293, #293, #294, .T. );
#269 = FILL_AREA_STYLE( '', ( #295 ) );
#270 = EDGE_CURVE( '', #296, #296, #297, .T. );
#271 = FILL_AREA_STYLE( '', ( #298 ) );
#272 = CARTESIAN_POINT( '', ( 0.000000000000000, 0.000000000000000, 30.5164042724874 ) );
#273 = FILL_AREA_STYLE( '', ( #299 ) );
#274 = EDGE_CURVE( '', #300, #300, #301, .T. );
#275 = EDGE_CURVE( '', #302, #302, #303, .F. );
#276 = FILL_AREA_STYLE( '', ( #304 ) );
#277 = EDGE_CURVE( '', #305, #305, #306, .T. );
#278 = FILL_AREA_STYLE( '', ( #307 ) );
#279 = EDGE_CURVE( '', #308, #308, #309, .F. );
#280 = FILL_AREA_STYLE( '', ( #310 ) );
#281 = EDGE_CURVE( '', #311, #311, #312, .T. );
#282 = FILL_AREA_STYLE( '', ( #313 ) );
#283 = FILL_AREA_STYLE( '', ( #314 ) );
#284 = FILL_AREA_STYLE( '', ( #315 ) );
#285 = FILL_AREA_STYLE_COLOUR( '', #316 );
#286 = VERTEX_POINT( '', #317 );
#287 = CIRCLE( '', #318, 7.69362094058065 );
#288 = VERTEX_POINT( '', #319 );
#289 = CIRCLE( '', #320, 7.00000000000000 );
#290 = FILL_AREA_STYLE_COLOUR( '', #321 );
#291 = VERTEX_POINT( '', #322 );
#292 = CIRCLE( '', #323, 4.18800000000000 );
#293 = VERTEX_POINT( '', #324 );
#294 = CIRCLE( '', #325, 4.18800000000000 );
#295 = FILL_AREA_STYLE_COLOUR( '', #326 );
#296 = VERTEX_POINT( '', #327 );
#297 = CIRCLE( '', #328, 8.13965916164370 );
#298 = FILL_AREA_STYLE_COLOUR( '', #329 );
#299 = FILL_AREA_STYLE_COLOUR( '', #330 );
#300 = VERTEX_POINT( '', #331 );
#301 = CIRCLE( '', #332, 4.18800000000000 );
#302 = VERTEX_POINT( '', #333 );
#303 = CIRCLE( '', #334, 4.68800000000000 );
#304 = FILL_AREA_STYLE_COLOUR( '', #335 );
#305 = VERTEX_POINT( '', #336 );
#306 = CIRCLE( '', #337, 6.00000000000000 );
#307 = FILL_AREA_STYLE_COLOUR( '', #338 );
#308 = VERTEX_POINT( '', #339 );
#309 = CIRCLE( '', #340, 6.00000000000000 );
#310 = FILL_AREA_STYLE_COLOUR( '', #341 );
#311 = VERTEX_POINT( '', #342 );
#312 = CIRCLE( '', #343, 6.01001767979712 );
#313 = FILL_AREA_STYLE_COLOUR( '', #344 );
#314 = FILL_AREA_STYLE_COLOUR( '', #345 );
#315 = FILL_AREA_STYLE_COLOUR( '', #346 );
#316 = COLOUR_RGB( '', 0.200000002980232, 0.200000002980232, 0.200000002980232 );
#317 = CARTESIAN_POINT( '', ( 7.69362094058065, 0.000000000000000, -4.15025667759363E-014 ) );
#318 = AXIS2_PLACEMENT_3D( '', #347, #348, #349 );
#319 = CARTESIAN_POINT( '', ( 7.00000000000000, 0.000000000000000, -4.15339081120462E-014 ) );
#320 = AXIS2_PLACEMENT_3D( '', #350, #351, #352 );
#321 = COLOUR_RGB( '', 0.200000002980232, 0.200000002980232, 0.200000002980232 );
#322 = CARTESIAN_POINT( '', ( 0.000000000000000, -4.18800000000000, 28.0000000000000 ) );
#323 = AXIS2_PLACEMENT_3D( '', #353, #354, #355 );
#324 = CARTESIAN_POINT( '', ( 0.000000000000000, 4.18800000000000, 21.0000000000000 ) );
#325 = AXIS2_PLACEMENT_3D( '', #356, #357, #358 );
#326 = COLOUR_RGB( '', 0.200000002980232, 0.200000002980232, 0.200000002980232 );
#327 = CARTESIAN_POINT( '', ( 8.13965916164370, 0.000000000000000, 0.274057738900116 ) );
#328 = AXIS2_PLACEMENT_3D( '', #359, #360, #361 );
#329 = COLOUR_RGB( '', 0.200000002980232, 0.200000002980232, 0.200000002980232 );
#330 = COLOUR_RGB( '', 0.200000002980232, 0.200000002980232, 0.200000002980232 );
#331 = CARTESIAN_POINT( '', ( -4.18800000000000, 0.000000000000000, 3.49999999999992 ) );
#332 = AXIS2_PLACEMENT_3D( '', #362, #363, #364 );
#333 = CARTESIAN_POINT( '', ( -4.68800000000000, 0.000000000000000, 2.99999999999992 ) );
#334 = AXIS2_PLACEMENT_3D( '', #365, #366, #367 );
#335 = COLOUR_RGB( '', 0.200000002980232, 0.200000002980232, 0.200000002980232 );
#336 = CARTESIAN_POINT( '', ( 6.00000000000000, 0.000000000000000, 2.99999999999992 ) );
#337 = AXIS2_PLACEMENT_3D( '', #368, #369, #370 );
#338 = COLOUR_RGB( '', 0.200000002980232, 0.200000002980232, 0.200000002980232 );
#339 = CARTESIAN_POINT( '', ( 6.00000000000000, 0.000000000000000, 0.999999999999959 ) );
#340 = AXIS2_PLACEMENT_3D( '', #371, #372, #373 );
#341 = COLOUR_RGB( '', 0.200000002980232, 0.200000002980232, 0.200000002980232 );
#342 = CARTESIAN_POINT( '', ( 6.01001767979712, 0.000000000000000, 61.5888281497621 ) );
#343 = AXIS2_PLACEMENT_3D( '', #374, #375, #376 );
#344 = COLOUR_RGB( '', 0.200000002980232, 0.200000002980232, 0.200000002980232 );
#345 = COLOUR_RGB( '', 0.200000002980232, 0.200000002980232, 0.200000002980232 );
#346 = COLOUR_RGB( '', 0.752941191196442, 0.752941191196442, 0.752941191196442 );
#347 = CARTESIAN_POINT( '', ( 1.31031615316087E-015, 0.000000000000000, -4.18502038579405E-014 ) );
#348 = DIRECTION( '', ( -4.51851065563303E-017, 0.000000000000000, 1.00000000000000 ) );
#349 = DIRECTION( '', ( 1.00000000000000, 0.000000000000000, 4.51851065563303E-017 ) );
#350 = CARTESIAN_POINT( '', ( 4.51851065563304E-017, 0.000000000000000, -4.18502038579405E-014 ) );
#351 = DIRECTION( '', ( -4.51851065563303E-017, 0.000000000000000, 1.00000000000000 ) );
#352 = DIRECTION( '', ( 1.00000000000000, 0.000000000000000, 4.51851065563303E-017 ) );
#353 = CARTESIAN_POINT( '', ( 0.000000000000000, 0.000000000000000, 28.0000000000000 ) );
#354 = DIRECTION( '', ( 0.000000000000000, 0.000000000000000, 1.00000000000000 ) );
#355 = DIRECTION( '', ( 0.000000000000000, -1.00000000000000, 0.000000000000000 ) );
#356 = CARTESIAN_POINT( '', ( 0.000000000000000, 0.000000000000000, 21.0000000000000 ) );
#357 = DIRECTION( '', ( 0.000000000000000, 0.000000000000000, -1.00000000000000 ) );
#358 = DIRECTION( '', ( 0.000000000000000, 1.00000000000000, 0.000000000000000 ) );
#359 = CARTESIAN_POINT( '', ( 1.29793282502608E-015, 0.000000000000000, 0.274057738900116 ) );
#360 = DIRECTION( '', ( -4.51851065563303E-017, 0.000000000000000, 1.00000000000000 ) );
#361 = DIRECTION( '', ( 1.00000000000000, 0.000000000000000, 4.51851065563303E-017 ) );
#362 = CARTESIAN_POINT( '', ( 0.000000000000000, 0.000000000000000, 3.49999999999992 ) );
#363 = DIRECTION( '', ( 0.000000000000000, 0.000000000000000, -1.00000000000000 ) );
#364 = DIRECTION( '', ( -1.00000000000000, 0.000000000000000, 0.000000000000000 ) );
#365 = CARTESIAN_POINT( '', ( 0.000000000000000, 0.000000000000000, 2.99999999999992 ) );
#366 = DIRECTION( '', ( 0.000000000000000, 0.000000000000000, -1.00000000000000 ) );
#367 = DIRECTION( '', ( -1.00000000000000, 0.000000000000000, 0.000000000000000 ) );
#368 = CARTESIAN_POINT( '', ( 0.000000000000000, 0.000000000000000, 2.99999999999992 ) );
#369 = DIRECTION( '', ( 0.000000000000000, 0.000000000000000, 1.00000000000000 ) );
#370 = DIRECTION( '', ( 1.00000000000000, 0.000000000000000, 0.000000000000000 ) );
#371 = CARTESIAN_POINT( '', ( 0.000000000000000, 0.000000000000000, 0.999999999999959 ) );
#372 = DIRECTION( '', ( -4.51851065563303E-017, 0.000000000000000, 1.00000000000000 ) );
#373 = DIRECTION( '', ( 1.00000000000000, 0.000000000000000, 4.51851065563303E-017 ) );
#374 = CARTESIAN_POINT( '', ( -1.31438179954578E-015, 0.000000000000000, 61.5888281497621 ) );
#375 = DIRECTION( '', ( -4.51851065563303E-017, 0.000000000000000, 1.00000000000000 ) );
#376 = DIRECTION( '', ( 1.00000000000000, 0.000000000000000, 4.51851065563303E-017 ) );
ENDSEC;
END-ISO-10303-21;
