ISO-10303-21;
HEADER;
FILE_DESCRIPTION( ( 'Unknown' ), '1' );
FILE_NAME( 'E:/98-Dis_3D_per_controllo/IO/7114015_IO30_M12/7114015_IO30.stp', 'Unknown', ( 'Unknown' ), ( 'Unknown' ), 'PSStep 11.0', 'Unknown', '  ' );
FILE_SCHEMA( ( 'AUTOMOTIVE_DESIGN { 1 0 10303 214 1 1 1 1 }' ) );
ENDSEC;
DATA;
#1 = MECHANICAL_DESIGN_GEOMETRIC_PRESENTATION_REPRESENTATION( ' ', ( #10, #11, #12, #13, #14, #15, #16, #17, #18 ), #6 );
#2 = PRODUCT_DEFINITION_CONTEXT( '', #19, 'design' );
#3 = APPLICATION_PROTOCOL_DEFINITION( 'INTERNATIONAL STANDARD', 'automotive_design', 2001, #19 );
#4 = PRODUCT_CATEGORY_RELATIONSHIP( 'NONE', 'NONE', #20, #21 );
#5 = SHAPE_DEFINITION_REPRESENTATION( #22, #23 );
#6 =  ( GEOMETRIC_REPRESENTATION_CONTEXT( 3 )GLOBAL_UNCERTAINTY_ASSIGNED_CONTEXT( ( #26 ) )GLOBAL_UNIT_ASSIGNED_CONTEXT( ( #28, #29, #30 ) )REPRESENTATION_CONTEXT( 'NONE', 'WORKSPACE' ) );
#10 = STYLED_ITEM( '', ( #32 ), #33 );
#11 = STYLED_ITEM( '', ( #34 ), #35 );
#12 = STYLED_ITEM( '', ( #36 ), #37 );
#13 = STYLED_ITEM( '', ( #38 ), #39 );
#14 = STYLED_ITEM( '', ( #40 ), #41 );
#15 = STYLED_ITEM( '', ( #42 ), #43 );
#16 = STYLED_ITEM( '', ( #44 ), #45 );
#17 = STYLED_ITEM( '', ( #46 ), #47 );
#18 = STYLED_ITEM( '', ( #48 ), #49 );
#19 = APPLICATION_CONTEXT( 'core data for automotive mechanical design processes' );
#20 = PRODUCT_CATEGORY( 'part', 'NONE' );
#21 = PRODUCT_RELATED_PRODUCT_CATEGORY( 'detail', ' ', ( #50 ) );
#22 = PRODUCT_DEFINITION_SHAPE( 'NONE', 'NONE', #51 );
#23 = ADVANCED_BREP_SHAPE_REPRESENTATION( '1', ( #52, #53 ), #6 );
#26 = UNCERTAINTY_MEASURE_WITH_UNIT( LENGTH_MEASURE( 0.00100000000000000 ), #28, '', '' );
#28 =  ( CONVERSION_BASED_UNIT( 'MILLIMETRE', #56 )LENGTH_UNIT(  )NAMED_UNIT( #59 ) );
#29 =  ( NAMED_UNIT( #61 )PLANE_ANGLE_UNIT(  )SI_UNIT( $, .RADIAN. ) );
#30 =  ( NAMED_UNIT( #61 )SI_UNIT( $, .STERADIAN. )SOLID_ANGLE_UNIT(  ) );
#32 = PRESENTATION_STYLE_ASSIGNMENT( ( #67 ) );
#33 = ADVANCED_FACE( '', ( #68, #69 ), #70, .T. );
#34 = PRESENTATION_STYLE_ASSIGNMENT( ( #71 ) );
#35 = ADVANCED_FACE( '', ( #72, #73 ), #74, .F. );
#36 = PRESENTATION_STYLE_ASSIGNMENT( ( #75 ) );
#37 = ADVANCED_FACE( '', ( #76, #77 ), #78, .F. );
#38 = PRESENTATION_STYLE_ASSIGNMENT( ( #79 ) );
#39 = ADVANCED_FACE( '', ( #80, #81 ), #82, .T. );
#40 = PRESENTATION_STYLE_ASSIGNMENT( ( #83 ) );
#41 = ADVANCED_FACE( '', ( #84, #85 ), #86, .F. );
#42 = PRESENTATION_STYLE_ASSIGNMENT( ( #87 ) );
#43 = ADVANCED_FACE( '', ( #88, #89 ), #90, .F. );
#44 = PRESENTATION_STYLE_ASSIGNMENT( ( #91 ) );
#45 = ADVANCED_FACE( '', ( #92, #93 ), #94, .T. );
#46 = PRESENTATION_STYLE_ASSIGNMENT( ( #95 ) );
#47 = ADVANCED_FACE( '', ( #96, #97 ), #98, .F. );
#48 = PRESENTATION_STYLE_ASSIGNMENT( ( #99 ) );
#49 = ADVANCED_FACE( '', ( #100 ), #101, .T. );
#50 = PRODUCT( '1', '1', 'PART-1-DESC', ( #102 ) );
#51 = PRODUCT_DEFINITION( 'NONE', 'NONE', #103, #2 );
#52 = MANIFOLD_SOLID_BREP( '1', #104 );
#53 = AXIS2_PLACEMENT_3D( '', #105, #106, #107 );
#56 = LENGTH_MEASURE_WITH_UNIT( LENGTH_MEASURE( 1.00000000000000 ), #108 );
#59 = DIMENSIONAL_EXPONENTS( 1.00000000000000, 0.000000000000000, 0.000000000000000, 0.000000000000000, 0.000000000000000, 0.000000000000000, 0.000000000000000 );
#61 = DIMENSIONAL_EXPONENTS( 0.000000000000000, 0.000000000000000, 0.000000000000000, 0.000000000000000, 0.000000000000000, 0.000000000000000, 0.000000000000000 );
#67 = SURFACE_STYLE_USAGE( .BOTH., #109 );
#68 = FACE_BOUND( '', #110, .T. );
#69 = FACE_OUTER_BOUND( '', #111, .T. );
#70 = PLANE( '', #112 );
#71 = SURFACE_STYLE_USAGE( .BOTH., #113 );
#72 = FACE_OUTER_BOUND( '', #114, .T. );
#73 = FACE_OUTER_BOUND( '', #115, .T. );
#74 = CYLINDRICAL_SURFACE( '', #116, 7.00000000000000 );
#75 = SURFACE_STYLE_USAGE( .BOTH., #117 );
#76 = FACE_BOUND( '', #118, .T. );
#77 = FACE_OUTER_BOUND( '', #119, .T. );
#78 = CONICAL_SURFACE( '', #120, 5.55300000000000, 0.785398163397449 );
#79 = SURFACE_STYLE_USAGE( .BOTH., #121 );
#80 = FACE_OUTER_BOUND( '', #122, .T. );
#81 = FACE_OUTER_BOUND( '', #123, .T. );
#82 = TOROIDAL_SURFACE( '', #124, 8.00000000000000, 1.00000000000000 );
#83 = SURFACE_STYLE_USAGE( .BOTH., #125 );
#84 = FACE_OUTER_BOUND( '', #126, .T. );
#85 = FACE_OUTER_BOUND( '', #127, .T. );
#86 = CYLINDRICAL_SURFACE( '', #128, 5.05300000000000 );
#87 = SURFACE_STYLE_USAGE( .BOTH., #129 );
#88 = FACE_OUTER_BOUND( '', #130, .T. );
#89 = FACE_OUTER_BOUND( '', #131, .T. );
#90 = CYLINDRICAL_SURFACE( '', #132, 5.05300000000000 );
#91 = SURFACE_STYLE_USAGE( .BOTH., #133 );
#92 = FACE_OUTER_BOUND( '', #134, .T. );
#93 = FACE_OUTER_BOUND( '', #135, .T. );
#94 = ( BOUNDED_SURFACE(  )B_SPLINE_SURFACE( 3, 3, ( ( #138, #139, #140, #141, #142, #143, #144 ), ( #145, #146, #147, #148, #149, #150, #151 ), ( #152, #153, #154, #155, #156, #157, #158 ), ( #159, #160, #161, #162, #163, #164, #165 ) ), .UNSPECIFIED., .F., .T., .F. )B_SPLINE_SURFACE_WITH_KNOTS( ( 4, 4 ), ( 4, 3, 4 ), ( 0.000000000000000, 6.28318530717959 ), ( -0.473715603442164, 0.0322995307599032, 0.538314664961971 ), .UNSPECIFIED. )GEOMETRIC_REPRESENTATION_ITEM(  )RATIONAL_B_SPLINE_SURFACE( ( ( 1.00000000000000, 0.333333333333333, 0.333333333333333, 1.00000000000000, 0.333333333333333, 0.333333333333333, 1.00000000000000 ), ( 0.916455262732115, 0.305485087577372, 0.305485087577372, 0.916455262732115, 0.305485087577372, 0.305485087577372, 0.916455262732115 ), ( 0.916455262732115, 0.305485087577372, 0.305485087577372, 0.916455262732115, 0.305485087577372, 0.305485087577372, 0.916455262732115 ), ( 1.00000000000000, 0.333333333333333, 0.333333333333333, 1.00000000000000, 0.333333333333333, 0.333333333333333, 1.00000000000000 ) ) )REPRESENTATION_ITEM( '' )SURFACE(  ) );
#95 = SURFACE_STYLE_USAGE( .BOTH., #171 );
#96 = FACE_OUTER_BOUND( '', #172, .T. );
#97 = FACE_BOUND( '', #173, .T. );
#98 = CONICAL_SURFACE( '', #174, 5.05300000000000, 1.02974425867665 );
#99 = SURFACE_STYLE_USAGE( .BOTH., #175 );
#100 = FACE_OUTER_BOUND( '', #176, .T. );
#101 = SPHERICAL_SURFACE( '', #177, 7.00000000000000 );
#102 = PRODUCT_CONTEXT( '', #19, 'mechanical' );
#103 = PRODUCT_DEFINITION_FORMATION_WITH_SPECIFIED_SOURCE( ' ', 'NONE', #50, .NOT_KNOWN. );
#104 = CLOSED_SHELL( '', ( #43, #39, #47, #37, #41, #33, #45, #49, #35 ) );
#105 = CARTESIAN_POINT( '', ( 0.000000000000000, 0.000000000000000, 0.000000000000000 ) );
#106 = DIRECTION( '', ( 0.000000000000000, 0.000000000000000, 1.00000000000000 ) );
#107 = DIRECTION( '', ( 1.00000000000000, 0.000000000000000, 0.000000000000000 ) );
#108 =  ( LENGTH_UNIT(  )NAMED_UNIT( #59 )SI_UNIT( .MILLI., .METRE. ) );
#109 = SURFACE_SIDE_STYLE( '', ( #179 ) );
#110 = EDGE_LOOP( '', ( #180 ) );
#111 = EDGE_LOOP( '', ( #181 ) );
#112 = AXIS2_PLACEMENT_3D( '', #182, #183, #184 );
#113 = SURFACE_SIDE_STYLE( '', ( #185 ) );
#114 = EDGE_LOOP( '', ( #186 ) );
#115 = EDGE_LOOP( '', ( #187 ) );
#116 = AXIS2_PLACEMENT_3D( '', #188, #189, #190 );
#117 = SURFACE_SIDE_STYLE( '', ( #191 ) );
#118 = EDGE_LOOP( '', ( #192 ) );
#119 = EDGE_LOOP( '', ( #193 ) );
#120 = AXIS2_PLACEMENT_3D( '', #194, #195, #196 );
#121 = SURFACE_SIDE_STYLE( '', ( #197 ) );
#122 = EDGE_LOOP( '', ( #198 ) );
#123 = EDGE_LOOP( '', ( #199 ) );
#124 = AXIS2_PLACEMENT_3D( '', #200, #201, #202 );
#125 = SURFACE_SIDE_STYLE( '', ( #203 ) );
#126 = EDGE_LOOP( '', ( #204 ) );
#127 = EDGE_LOOP( '', ( #205 ) );
#128 = AXIS2_PLACEMENT_3D( '', #206, #207, #208 );
#129 = SURFACE_SIDE_STYLE( '', ( #209 ) );
#130 = EDGE_LOOP( '', ( #210 ) );
#131 = EDGE_LOOP( '', ( #211 ) );
#132 = AXIS2_PLACEMENT_3D( '', #212, #213, #214 );
#133 = SURFACE_SIDE_STYLE( '', ( #215 ) );
#134 = EDGE_LOOP( '', ( #216 ) );
#135 = EDGE_LOOP( '', ( #217 ) );
#138 = CARTESIAN_POINT( '', ( 6.01001767979711, 0.000000000000000, 61.5888281497621 ) );
#139 = CARTESIAN_POINT( '', ( 6.01001767979711, 12.0200353595942, 61.5888281497621 ) );
#140 = CARTESIAN_POINT( '', ( -6.01001767979712, 12.0200353595942, 61.5888281497621 ) );
#141 = CARTESIAN_POINT( '', ( -6.01001767979712, 0.000000000000000, 61.5888281497621 ) );
#142 = CARTESIAN_POINT( '', ( -6.01001767979712, -12.0200353595942, 61.5888281497621 ) );
#143 = CARTESIAN_POINT( '', ( 6.01001767979711, -12.0200353595942, 61.5888281497621 ) );
#144 = CARTESIAN_POINT( '', ( 6.01001767979711, 0.000000000000000, 61.5888281497621 ) );
#145 = CARTESIAN_POINT( '', ( 17.5008270462746, 0.000000000000000, 42.3457870884935 ) );
#146 = CARTESIAN_POINT( '', ( 17.5008270462746, 35.0016540925493, 42.3457870884935 ) );
#147 = CARTESIAN_POINT( '', ( -17.5008270462746, 35.0016540925493, 42.3457870884935 ) );
#148 = CARTESIAN_POINT( '', ( -17.5008270462746, 0.000000000000000, 42.3457870884935 ) );
#149 = CARTESIAN_POINT( '', ( -17.5008270462746, -35.0016540925493, 42.3457870884935 ) );
#150 = CARTESIAN_POINT( '', ( 17.5008270462746, -35.0016540925493, 42.3457870884935 ) );
#151 = CARTESIAN_POINT( '', ( 17.5008270462746, 0.000000000000000, 42.3457870884935 ) );
#152 = CARTESIAN_POINT( '', ( 18.2246239047160, 0.000000000000000, 19.9446833815306 ) );
#153 = CARTESIAN_POINT( '', ( 18.2246239047160, 36.4492478094321, 19.9446833815306 ) );
#154 = CARTESIAN_POINT( '', ( -18.2246239047160, 36.4492478094321, 19.9446833815306 ) );
#155 = CARTESIAN_POINT( '', ( -18.2246239047160, 0.000000000000000, 19.9446833815306 ) );
#156 = CARTESIAN_POINT( '', ( -18.2246239047160, -36.4492478094321, 19.9446833815306 ) );
#157 = CARTESIAN_POINT( '', ( 18.2246239047160, -36.4492478094321, 19.9446833815306 ) );
#158 = CARTESIAN_POINT( '', ( 18.2246239047160, 0.000000000000000, 19.9446833815306 ) );
#159 = CARTESIAN_POINT( '', ( 7.99999999999988, 0.000000000000000, -9.02056207507940E-014 ) );
#160 = CARTESIAN_POINT( '', ( 7.99999999999987, 15.9999999999997, -9.02056207507940E-014 ) );
#161 = CARTESIAN_POINT( '', ( -7.99999999999987, 15.9999999999997, -9.09285824556952E-014 ) );
#162 = CARTESIAN_POINT( '', ( -7.99999999999987, 0.000000000000000, -9.09285824556952E-014 ) );
#163 = CARTESIAN_POINT( '', ( -7.99999999999987, -15.9999999999997, -9.09285824556952E-014 ) );
#164 = CARTESIAN_POINT( '', ( 7.99999999999987, -15.9999999999997, -9.02056207507940E-014 ) );
#165 = CARTESIAN_POINT( '', ( 7.99999999999988, 0.000000000000000, -9.02056207507940E-014 ) );
#171 = SURFACE_SIDE_STYLE( '', ( #218 ) );
#172 = EDGE_LOOP( '', ( #219 ) );
#173 = VERTEX_LOOP( '', #220 );
#174 = AXIS2_PLACEMENT_3D( '', #221, #222, #223 );
#175 = SURFACE_SIDE_STYLE( '', ( #224 ) );
#176 = EDGE_LOOP( '', ( #225 ) );
#177 = AXIS2_PLACEMENT_3D( '', #226, #227, #228 );
#179 = SURFACE_STYLE_FILL_AREA( #229 );
#180 = ORIENTED_EDGE( '', *, *, #230, .T. );
#181 = ORIENTED_EDGE( '', *, *, #231, .F. );
#182 = CARTESIAN_POINT( '', ( 7.00000000000000, 0.000000000000000, 2.99999999999992 ) );
#183 = DIRECTION( '', ( 0.000000000000000, 0.000000000000000, -1.00000000000000 ) );
#184 = DIRECTION( '', ( -1.00000000000000, 0.000000000000000, 0.000000000000000 ) );
#185 = SURFACE_STYLE_FILL_AREA( #232 );
#186 = ORIENTED_EDGE( '', *, *, #233, .T. );
#187 = ORIENTED_EDGE( '', *, *, #231, .T. );
#188 = CARTESIAN_POINT( '', ( 0.000000000000000, 0.000000000000000, 57.1500000000000 ) );
#189 = DIRECTION( '', ( -0.000000000000000, -0.000000000000000, -1.00000000000000 ) );
#190 = DIRECTION( '', ( 1.00000000000000, 0.000000000000000, 0.000000000000000 ) );
#191 = SURFACE_STYLE_FILL_AREA( #234 );
#192 = ORIENTED_EDGE( '', *, *, #235, .F. );
#193 = ORIENTED_EDGE( '', *, *, #230, .F. );
#194 = CARTESIAN_POINT( '', ( 0.000000000000000, 0.000000000000000, 2.99999999999992 ) );
#195 = DIRECTION( '', ( -0.000000000000000, 0.000000000000000, -1.00000000000000 ) );
#196 = DIRECTION( '', ( -1.00000000000000, 0.000000000000000, 0.000000000000000 ) );
#197 = SURFACE_STYLE_FILL_AREA( #236 );
#198 = ORIENTED_EDGE( '', *, *, #233, .F. );
#199 = ORIENTED_EDGE( '', *, *, #237, .F. );
#200 = CARTESIAN_POINT( '', ( 0.000000000000000, 0.000000000000000, 0.999999999999959 ) );
#201 = DIRECTION( '', ( -4.51851065563303E-017, 0.000000000000000, 1.00000000000000 ) );
#202 = DIRECTION( '', ( 1.00000000000000, 0.000000000000000, 4.51851065563303E-017 ) );
#203 = SURFACE_STYLE_FILL_AREA( #238 );
#204 = ORIENTED_EDGE( '', *, *, #235, .T. );
#205 = ORIENTED_EDGE( '', *, *, #239, .F. );
#206 = CARTESIAN_POINT( '', ( 0.000000000000000, 0.000000000000000, 2.99999999999992 ) );
#207 = DIRECTION( '', ( -0.000000000000000, 0.000000000000000, -1.00000000000000 ) );
#208 = DIRECTION( '', ( 0.000000000000000, 1.00000000000000, 0.000000000000000 ) );
#209 = SURFACE_STYLE_FILL_AREA( #240 );
#210 = ORIENTED_EDGE( '', *, *, #241, .T. );
#211 = ORIENTED_EDGE( '', *, *, #239, .T. );
#212 = CARTESIAN_POINT( '', ( 0.000000000000000, 0.000000000000000, 2.99999999999992 ) );
#213 = DIRECTION( '', ( -0.000000000000000, 0.000000000000000, -1.00000000000000 ) );
#214 = DIRECTION( '', ( 0.000000000000000, 1.00000000000000, 0.000000000000000 ) );
#215 = SURFACE_STYLE_FILL_AREA( #242 );
#216 = ORIENTED_EDGE( '', *, *, #243, .F. );
#217 = ORIENTED_EDGE( '', *, *, #237, .T. );
#218 = SURFACE_STYLE_FILL_AREA( #244 );
#219 = ORIENTED_EDGE( '', *, *, #241, .F. );
#220 = VERTEX_POINT( '', #245 );
#221 = CARTESIAN_POINT( '', ( 0.000000000000000, 0.000000000000000, 33.0000000000000 ) );
#222 = DIRECTION( '', ( 0.000000000000000, -0.000000000000000, -1.00000000000000 ) );
#223 = DIRECTION( '', ( 0.000000000000000, -1.00000000000000, 0.000000000000000 ) );
#224 = SURFACE_STYLE_FILL_AREA( #246 );
#225 = ORIENTED_EDGE( '', *, *, #243, .T. );
#226 = CARTESIAN_POINT( '', ( 0.000000000000000, 0.000000000000000, 58.0000000000000 ) );
#227 = DIRECTION( '', ( -4.51851065563303E-017, 0.000000000000000, 1.00000000000000 ) );
#228 = DIRECTION( '', ( 1.00000000000000, 0.000000000000000, 4.51851065563303E-017 ) );
#229 = FILL_AREA_STYLE( '', ( #247 ) );
#230 = EDGE_CURVE( '', #248, #248, #249, .F. );
#231 = EDGE_CURVE( '', #250, #250, #251, .T. );
#232 = FILL_AREA_STYLE( '', ( #252 ) );
#233 = EDGE_CURVE( '', #253, #253, #254, .F. );
#234 = FILL_AREA_STYLE( '', ( #255 ) );
#235 = EDGE_CURVE( '', #256, #256, #257, .T. );
#236 = FILL_AREA_STYLE( '', ( #258 ) );
#237 = EDGE_CURVE( '', #259, #259, #260, .T. );
#238 = FILL_AREA_STYLE( '', ( #261 ) );
#239 = EDGE_CURVE( '', #262, #262, #263, .T. );
#240 = FILL_AREA_STYLE( '', ( #264 ) );
#241 = EDGE_CURVE( '', #265, #265, #266, .T. );
#242 = FILL_AREA_STYLE( '', ( #267 ) );
#243 = EDGE_CURVE( '', #268, #268, #269, .T. );
#244 = FILL_AREA_STYLE( '', ( #270 ) );
#245 = CARTESIAN_POINT( '', ( 0.000000000000000, 0.000000000000000, 36.0361487079462 ) );
#246 = FILL_AREA_STYLE( '', ( #271 ) );
#247 = FILL_AREA_STYLE_COLOUR( '', #272 );
#248 = VERTEX_POINT( '', #273 );
#249 = CIRCLE( '', #274, 5.55300000000000 );
#250 = VERTEX_POINT( '', #275 );
#251 = CIRCLE( '', #276, 7.00000000000000 );
#252 = FILL_AREA_STYLE_COLOUR( '', #277 );
#253 = VERTEX_POINT( '', #278 );
#254 = CIRCLE( '', #279, 7.00000000000000 );
#255 = FILL_AREA_STYLE_COLOUR( '', #280 );
#256 = VERTEX_POINT( '', #281 );
#257 = CIRCLE( '', #282, 5.05300000000000 );
#258 = FILL_AREA_STYLE_COLOUR( '', #283 );
#259 = VERTEX_POINT( '', #284 );
#260 = CIRCLE( '', #285, 7.99999999999987 );
#261 = FILL_AREA_STYLE_COLOUR( '', #286 );
#262 = VERTEX_POINT( '', #287 );
#263 = CIRCLE( '', #288, 5.05300000000000 );
#264 = FILL_AREA_STYLE_COLOUR( '', #289 );
#265 = VERTEX_POINT( '', #290 );
#266 = CIRCLE( '', #291, 5.05300000000000 );
#267 = FILL_AREA_STYLE_COLOUR( '', #292 );
#268 = VERTEX_POINT( '', #293 );
#269 = CIRCLE( '', #294, 6.01001767979712 );
#270 = FILL_AREA_STYLE_COLOUR( '', #295 );
#271 = FILL_AREA_STYLE_COLOUR( '', #296 );
#272 = COLOUR_RGB( '', 0.200000002980232, 0.200000002980232, 0.200000002980232 );
#273 = CARTESIAN_POINT( '', ( -5.55300000000000, 0.000000000000000, 2.99999999999992 ) );
#274 = AXIS2_PLACEMENT_3D( '', #297, #298, #299 );
#275 = CARTESIAN_POINT( '', ( 7.00000000000000, 0.000000000000000, 2.99999999999992 ) );
#276 = AXIS2_PLACEMENT_3D( '', #300, #301, #302 );
#277 = COLOUR_RGB( '', 0.200000002980232, 0.200000002980232, 0.200000002980232 );
#278 = CARTESIAN_POINT( '', ( 7.00000000000000, 0.000000000000000, 0.999999999999959 ) );
#279 = AXIS2_PLACEMENT_3D( '', #303, #304, #305 );
#280 = COLOUR_RGB( '', 0.200000002980232, 0.200000002980232, 0.200000002980232 );
#281 = CARTESIAN_POINT( '', ( -5.05300000000000, 0.000000000000000, 3.49999999999992 ) );
#282 = AXIS2_PLACEMENT_3D( '', #306, #307, #308 );
#283 = COLOUR_RGB( '', 0.200000002980232, 0.200000002980232, 0.200000002980232 );
#284 = CARTESIAN_POINT( '', ( 7.99999999999987, 0.000000000000000, -8.29052459944361E-014 ) );
#285 = AXIS2_PLACEMENT_3D( '', #309, #310, #311 );
#286 = COLOUR_RGB( '', 0.752941191196442, 0.752941191196442, 0.752941191196442 );
#287 = CARTESIAN_POINT( '', ( 0.000000000000000, 5.05300000000000, 25.0000000000000 ) );
#288 = AXIS2_PLACEMENT_3D( '', #312, #313, #314 );
#289 = COLOUR_RGB( '', 0.200000002980232, 0.200000002980232, 0.200000002980232 );
#290 = CARTESIAN_POINT( '', ( 0.000000000000000, -5.05300000000000, 33.0000000000000 ) );
#291 = AXIS2_PLACEMENT_3D( '', #315, #316, #317 );
#292 = COLOUR_RGB( '', 0.200000002980232, 0.200000002980232, 0.200000002980232 );
#293 = CARTESIAN_POINT( '', ( 6.01001767979712, 0.000000000000000, 61.5888281497621 ) );
#294 = AXIS2_PLACEMENT_3D( '', #318, #319, #320 );
#295 = COLOUR_RGB( '', 0.200000002980232, 0.200000002980232, 0.200000002980232 );
#296 = COLOUR_RGB( '', 0.200000002980232, 0.200000002980232, 0.200000002980232 );
#297 = CARTESIAN_POINT( '', ( 0.000000000000000, 0.000000000000000, 2.99999999999992 ) );
#298 = DIRECTION( '', ( 0.000000000000000, 0.000000000000000, -1.00000000000000 ) );
#299 = DIRECTION( '', ( -1.00000000000000, 0.000000000000000, 0.000000000000000 ) );
#300 = CARTESIAN_POINT( '', ( 0.000000000000000, 0.000000000000000, 2.99999999999992 ) );
#301 = DIRECTION( '', ( 0.000000000000000, 0.000000000000000, 1.00000000000000 ) );
#302 = DIRECTION( '', ( 1.00000000000000, 0.000000000000000, 0.000000000000000 ) );
#303 = CARTESIAN_POINT( '', ( 0.000000000000000, 0.000000000000000, 0.999999999999959 ) );
#304 = DIRECTION( '', ( -4.51851065563303E-017, 0.000000000000000, 1.00000000000000 ) );
#305 = DIRECTION( '', ( 1.00000000000000, 0.000000000000000, 4.51851065563303E-017 ) );
#306 = CARTESIAN_POINT( '', ( 0.000000000000000, 0.000000000000000, 3.49999999999992 ) );
#307 = DIRECTION( '', ( 0.000000000000000, 0.000000000000000, -1.00000000000000 ) );
#308 = DIRECTION( '', ( -1.00000000000000, 0.000000000000000, 0.000000000000000 ) );
#309 = CARTESIAN_POINT( '', ( 1.46851596308074E-015, 0.000000000000000, -8.32667268468867E-014 ) );
#310 = DIRECTION( '', ( -4.51851065563303E-017, 0.000000000000000, 1.00000000000000 ) );
#311 = DIRECTION( '', ( 1.00000000000000, 0.000000000000000, 4.51851065563303E-017 ) );
#312 = CARTESIAN_POINT( '', ( 0.000000000000000, 0.000000000000000, 25.0000000000000 ) );
#313 = DIRECTION( '', ( 0.000000000000000, 0.000000000000000, -1.00000000000000 ) );
#314 = DIRECTION( '', ( 0.000000000000000, 1.00000000000000, 0.000000000000000 ) );
#315 = CARTESIAN_POINT( '', ( 0.000000000000000, 0.000000000000000, 33.0000000000000 ) );
#316 = DIRECTION( '', ( 0.000000000000000, 0.000000000000000, 1.00000000000000 ) );
#317 = DIRECTION( '', ( 0.000000000000000, -1.00000000000000, 0.000000000000000 ) );
#318 = CARTESIAN_POINT( '', ( -1.31438179954578E-015, 0.000000000000000, 61.5888281497621 ) );
#319 = DIRECTION( '', ( -4.51851065563303E-017, 0.000000000000000, 1.00000000000000 ) );
#320 = DIRECTION( '', ( 1.00000000000000, 0.000000000000000, 4.51851065563303E-017 ) );
ENDSEC;
END-ISO-10303-21;
