ISO-10303-21;
HEADER;
FILE_DESCRIPTION( ( 'Unknown' ), '1' );
FILE_NAME( 'E:/98-Dis_3D_per_controllo/IO/7114035_IO35_M16/7114035_IO35.stp', 'Unknown', ( 'Unknown' ), ( 'Unknown' ), 'PSStep 11.0', 'Unknown', '  ' );
FILE_SCHEMA( ( 'AUTOMOTIVE_DESIGN { 1 0 10303 214 1 1 1 1 }' ) );
ENDSEC;
DATA;
#1 = MECHANICAL_DESIGN_GEOMETRIC_PRESENTATION_REPRESENTATION( ' ', ( #10, #11, #12, #13, #14, #15, #16, #17, #18, #19, #20 ), #6 );
#2 = PRODUCT_DEFINITION_CONTEXT( '', #21, 'design' );
#3 = APPLICATION_PROTOCOL_DEFINITION( 'INTERNATIONAL STANDARD', 'automotive_design', 2001, #21 );
#4 = PRODUCT_CATEGORY_RELATIONSHIP( 'NONE', 'NONE', #22, #23 );
#5 = SHAPE_DEFINITION_REPRESENTATION( #24, #25 );
#6 =  ( GEOMETRIC_REPRESENTATION_CONTEXT( 3 )GLOBAL_UNCERTAINTY_ASSIGNED_CONTEXT( ( #28 ) )GLOBAL_UNIT_ASSIGNED_CONTEXT( ( #30, #31, #32 ) )REPRESENTATION_CONTEXT( 'NONE', 'WORKSPACE' ) );
#10 = STYLED_ITEM( '', ( #34 ), #35 );
#11 = STYLED_ITEM( '', ( #36 ), #37 );
#12 = STYLED_ITEM( '', ( #38 ), #39 );
#13 = STYLED_ITEM( '', ( #40 ), #41 );
#14 = STYLED_ITEM( '', ( #42 ), #43 );
#15 = STYLED_ITEM( '', ( #44 ), #45 );
#16 = STYLED_ITEM( '', ( #46 ), #47 );
#17 = STYLED_ITEM( '', ( #48 ), #49 );
#18 = STYLED_ITEM( '', ( #50 ), #51 );
#19 = STYLED_ITEM( '', ( #52 ), #53 );
#20 = STYLED_ITEM( '', ( #54 ), #55 );
#21 = APPLICATION_CONTEXT( 'core data for automotive mechanical design processes' );
#22 = PRODUCT_CATEGORY( 'part', 'NONE' );
#23 = PRODUCT_RELATED_PRODUCT_CATEGORY( 'detail', ' ', ( #56 ) );
#24 = PRODUCT_DEFINITION_SHAPE( 'NONE', 'NONE', #57 );
#25 = ADVANCED_BREP_SHAPE_REPRESENTATION( '1', ( #58, #59 ), #6 );
#28 = UNCERTAINTY_MEASURE_WITH_UNIT( LENGTH_MEASURE( 0.00100000000000000 ), #30, '', '' );
#30 =  ( CONVERSION_BASED_UNIT( 'MILLIMETRE', #62 )LENGTH_UNIT(  )NAMED_UNIT( #65 ) );
#31 =  ( NAMED_UNIT( #67 )PLANE_ANGLE_UNIT(  )SI_UNIT( $, .RADIAN. ) );
#32 =  ( NAMED_UNIT( #67 )SI_UNIT( $, .STERADIAN. )SOLID_ANGLE_UNIT(  ) );
#34 = PRESENTATION_STYLE_ASSIGNMENT( ( #73 ) );
#35 = ADVANCED_FACE( '', ( #74, #75 ), #76, .T. );
#36 = PRESENTATION_STYLE_ASSIGNMENT( ( #77 ) );
#37 = ADVANCED_FACE( '', ( #78, #79 ), #80, .F. );
#38 = PRESENTATION_STYLE_ASSIGNMENT( ( #81 ) );
#39 = ADVANCED_FACE( '', ( #82, #83 ), #84, .F. );
#40 = PRESENTATION_STYLE_ASSIGNMENT( ( #85 ) );
#41 = ADVANCED_FACE( '', ( #86, #87 ), #88, .F. );
#42 = PRESENTATION_STYLE_ASSIGNMENT( ( #89 ) );
#43 = ADVANCED_FACE( '', ( #90, #91 ), #92, .T. );
#44 = PRESENTATION_STYLE_ASSIGNMENT( ( #93 ) );
#45 = ADVANCED_FACE( '', ( #94, #95 ), #96, .F. );
#46 = PRESENTATION_STYLE_ASSIGNMENT( ( #97 ) );
#47 = ADVANCED_FACE( '', ( #98 ), #99, .T. );
#48 = PRESENTATION_STYLE_ASSIGNMENT( ( #100 ) );
#49 = ADVANCED_FACE( '', ( #101, #102 ), #103, .T. );
#50 = PRESENTATION_STYLE_ASSIGNMENT( ( #104 ) );
#51 = ADVANCED_FACE( '', ( #105, #106 ), #107, .F. );
#52 = PRESENTATION_STYLE_ASSIGNMENT( ( #108 ) );
#53 = ADVANCED_FACE( '', ( #109, #110 ), #111, .T. );
#54 = PRESENTATION_STYLE_ASSIGNMENT( ( #112 ) );
#55 = ADVANCED_FACE( '', ( #113, #114 ), #115, .F. );
#56 = PRODUCT( '1', '1', 'PART-1-DESC', ( #116 ) );
#57 = PRODUCT_DEFINITION( 'NONE', 'NONE', #117, #2 );
#58 = MANIFOLD_SOLID_BREP( '1', #118 );
#59 = AXIS2_PLACEMENT_3D( '', #119, #120, #121 );
#62 = LENGTH_MEASURE_WITH_UNIT( LENGTH_MEASURE( 1.00000000000000 ), #122 );
#65 = DIMENSIONAL_EXPONENTS( 1.00000000000000, 0.000000000000000, 0.000000000000000, 0.000000000000000, 0.000000000000000, 0.000000000000000, 0.000000000000000 );
#67 = DIMENSIONAL_EXPONENTS( 0.000000000000000, 0.000000000000000, 0.000000000000000, 0.000000000000000, 0.000000000000000, 0.000000000000000, 0.000000000000000 );
#73 = SURFACE_STYLE_USAGE( .BOTH., #123 );
#74 = FACE_OUTER_BOUND( '', #124, .T. );
#75 = FACE_OUTER_BOUND( '', #125, .T. );
#76 = TOROIDAL_SURFACE( '', #126, 10.6483597478332, 0.500000000000000 );
#77 = SURFACE_STYLE_USAGE( .BOTH., #127 );
#78 = FACE_OUTER_BOUND( '', #128, .T. );
#79 = FACE_BOUND( '', #129, .T. );
#80 = CONICAL_SURFACE( '', #130, 6.91750000000000, 1.02974425867665 );
#81 = SURFACE_STYLE_USAGE( .BOTH., #131 );
#82 = FACE_OUTER_BOUND( '', #132, .T. );
#83 = FACE_OUTER_BOUND( '', #133, .T. );
#84 = CYLINDRICAL_SURFACE( '', #134, 6.91750000000000 );
#85 = SURFACE_STYLE_USAGE( .BOTH., #135 );
#86 = FACE_OUTER_BOUND( '', #136, .T. );
#87 = FACE_BOUND( '', #137, .T. );
#88 = PLANE( '', #138 );
#89 = SURFACE_STYLE_USAGE( .BOTH., #139 );
#90 = FACE_OUTER_BOUND( '', #140, .T. );
#91 = FACE_OUTER_BOUND( '', #141, .T. );
#92 = ( BOUNDED_SURFACE(  )B_SPLINE_SURFACE( 3, 3, ( ( #144, #145, #146, #147, #148, #149, #150 ), ( #151, #152, #153, #154, #155, #156, #157 ), ( #158, #159, #160, #161, #162, #163, #164 ), ( #165, #166, #167, #168, #169, #170, #171 ) ), .UNSPECIFIED., .F., .T., .F. )B_SPLINE_SURFACE_WITH_KNOTS( ( 4, 4 ), ( 4, 3, 4 ), ( 0.000000000000000, 6.28318530717959 ), ( -0.343334135324535, 0.0238770139093756, 0.391088163143286 ), .UNSPECIFIED. )GEOMETRIC_REPRESENTATION_ITEM(  )RATIONAL_B_SPLINE_SURFACE( ( ( 1.00000000000000, 0.333333333333333, 0.333333333333333, 1.00000000000000, 0.333333333333333, 0.333333333333333, 1.00000000000000 ), ( 0.955554806733120, 0.318518268911040, 0.318518268911040, 0.955554806733120, 0.318518268911040, 0.318518268911040, 0.955554806733120 ), ( 0.955554806733120, 0.318518268911040, 0.318518268911040, 0.955554806733120, 0.318518268911040, 0.318518268911040, 0.955554806733120 ), ( 1.00000000000000, 0.333333333333333, 0.333333333333333, 1.00000000000000, 0.333333333333333, 0.333333333333333, 1.00000000000000 ) ) )REPRESENTATION_ITEM( '' )SURFACE(  ) );
#93 = SURFACE_STYLE_USAGE( .BOTH., #177 );
#94 = FACE_OUTER_BOUND( '', #178, .T. );
#95 = FACE_OUTER_BOUND( '', #179, .T. );
#96 = CYLINDRICAL_SURFACE( '', #180, 9.00000000000000 );
#97 = SURFACE_STYLE_USAGE( .BOTH., #181 );
#98 = FACE_OUTER_BOUND( '', #182, .T. );
#99 = SPHERICAL_SURFACE( '', #183, 10.0000000000000 );
#100 = SURFACE_STYLE_USAGE( .BOTH., #184 );
#101 = FACE_BOUND( '', #185, .T. );
#102 = FACE_OUTER_BOUND( '', #186, .T. );
#103 = PLANE( '', #187 );
#104 = SURFACE_STYLE_USAGE( .BOTH., #188 );
#105 = FACE_OUTER_BOUND( '', #189, .T. );
#106 = FACE_OUTER_BOUND( '', #190, .T. );
#107 = CYLINDRICAL_SURFACE( '', #191, 6.91750000000000 );
#108 = SURFACE_STYLE_USAGE( .BOTH., #192 );
#109 = FACE_OUTER_BOUND( '', #193, .T. );
#110 = FACE_OUTER_BOUND( '', #194, .T. );
#111 = TOROIDAL_SURFACE( '', #195, 9.50000000000000, 0.500000000000000 );
#112 = SURFACE_STYLE_USAGE( .BOTH., #196 );
#113 = FACE_BOUND( '', #197, .T. );
#114 = FACE_OUTER_BOUND( '', #198, .T. );
#115 = CONICAL_SURFACE( '', #199, 7.41750000000000, 0.785398163397448 );
#116 = PRODUCT_CONTEXT( '', #21, 'mechanical' );
#117 = PRODUCT_DEFINITION_FORMATION_WITH_SPECIFIED_SOURCE( ' ', 'NONE', #56, .NOT_KNOWN. );
#118 = CLOSED_SHELL( '', ( #51, #35, #37, #55, #39, #53, #49, #41, #43, #45, #47 ) );
#119 = CARTESIAN_POINT( '', ( 0.000000000000000, 0.000000000000000, 0.000000000000000 ) );
#120 = DIRECTION( '', ( 0.000000000000000, 0.000000000000000, 1.00000000000000 ) );
#121 = DIRECTION( '', ( 1.00000000000000, 0.000000000000000, 0.000000000000000 ) );
#122 =  ( LENGTH_UNIT(  )NAMED_UNIT( #65 )SI_UNIT( .MILLI., .METRE. ) );
#123 = SURFACE_SIDE_STYLE( '', ( #201 ) );
#124 = EDGE_LOOP( '', ( #202 ) );
#125 = EDGE_LOOP( '', ( #203 ) );
#126 = AXIS2_PLACEMENT_3D( '', #204, #205, #206 );
#127 = SURFACE_SIDE_STYLE( '', ( #207 ) );
#128 = EDGE_LOOP( '', ( #208 ) );
#129 = VERTEX_LOOP( '', #209 );
#130 = AXIS2_PLACEMENT_3D( '', #210, #211, #212 );
#131 = SURFACE_SIDE_STYLE( '', ( #213 ) );
#132 = EDGE_LOOP( '', ( #214 ) );
#133 = EDGE_LOOP( '', ( #215 ) );
#134 = AXIS2_PLACEMENT_3D( '', #216, #217, #218 );
#135 = SURFACE_SIDE_STYLE( '', ( #219 ) );
#136 = EDGE_LOOP( '', ( #220 ) );
#137 = EDGE_LOOP( '', ( #221 ) );
#138 = AXIS2_PLACEMENT_3D( '', #222, #223, #224 );
#139 = SURFACE_SIDE_STYLE( '', ( #225 ) );
#140 = EDGE_LOOP( '', ( #226 ) );
#141 = EDGE_LOOP( '', ( #227 ) );
#144 = CARTESIAN_POINT( '', ( 9.24494805326208, 0.000000000000000, 78.8119464178399 ) );
#145 = CARTESIAN_POINT( '', ( 9.24494805326208, 18.4898961065242, 78.8119464178399 ) );
#146 = CARTESIAN_POINT( '', ( -9.24494805326208, 18.4898961065242, 78.8119464178399 ) );
#147 = CARTESIAN_POINT( '', ( -9.24494805326208, 0.000000000000000, 78.8119464178399 ) );
#148 = CARTESIAN_POINT( '', ( -9.24494805326208, -18.4898961065242, 78.8119464178399 ) );
#149 = CARTESIAN_POINT( '', ( 9.24494805326208, -18.4898961065242, 78.8119464178399 ) );
#150 = CARTESIAN_POINT( '', ( 9.24494805326208, 0.000000000000000, 78.8119464178399 ) );
#151 = CARTESIAN_POINT( '', ( 19.6838346119524, 0.000000000000000, 53.4949683204228 ) );
#152 = CARTESIAN_POINT( '', ( 19.6838346119524, 39.3676692239049, 53.4949683204228 ) );
#153 = CARTESIAN_POINT( '', ( -19.6838346119524, 39.3676692239049, 53.4949683204228 ) );
#154 = CARTESIAN_POINT( '', ( -19.6838346119524, 0.000000000000000, 53.4949683204228 ) );
#155 = CARTESIAN_POINT( '', ( -19.6838346119524, -39.3676692239049, 53.4949683204228 ) );
#156 = CARTESIAN_POINT( '', ( 19.6838346119524, -39.3676692239049, 53.4949683204228 ) );
#157 = CARTESIAN_POINT( '', ( 19.6838346119524, 0.000000000000000, 53.4949683204228 ) );
#158 = CARTESIAN_POINT( '', ( 20.3376364485368, 0.000000000000000, 26.1181117490635 ) );
#159 = CARTESIAN_POINT( '', ( 20.3376364485368, 40.6752728970736, 26.1181117490635 ) );
#160 = CARTESIAN_POINT( '', ( -20.3376364485368, 40.6752728970736, 26.1181117490635 ) );
#161 = CARTESIAN_POINT( '', ( -20.3376364485368, 0.000000000000000, 26.1181117490635 ) );
#162 = CARTESIAN_POINT( '', ( -20.3376364485368, -40.6752728970736, 26.1181117490635 ) );
#163 = CARTESIAN_POINT( '', ( 20.3376364485368, -40.6752728970736, 26.1181117490635 ) );
#164 = CARTESIAN_POINT( '', ( 20.3376364485368, 0.000000000000000, 26.1181117490635 ) );
#165 = CARTESIAN_POINT( '', ( 11.1191785160595, 0.000000000000000, 0.331685747823100 ) );
#166 = CARTESIAN_POINT( '', ( 11.1191785160595, 22.2383570321190, 0.331685747823100 ) );
#167 = CARTESIAN_POINT( '', ( -11.1191785160595, 22.2383570321190, 0.331685747823099 ) );
#168 = CARTESIAN_POINT( '', ( -11.1191785160595, 0.000000000000000, 0.331685747823099 ) );
#169 = CARTESIAN_POINT( '', ( -11.1191785160595, -22.2383570321190, 0.331685747823099 ) );
#170 = CARTESIAN_POINT( '', ( 11.1191785160595, -22.2383570321190, 0.331685747823100 ) );
#171 = CARTESIAN_POINT( '', ( 11.1191785160595, 0.000000000000000, 0.331685747823100 ) );
#177 = SURFACE_SIDE_STYLE( '', ( #228 ) );
#178 = EDGE_LOOP( '', ( #229 ) );
#179 = EDGE_LOOP( '', ( #230 ) );
#180 = AXIS2_PLACEMENT_3D( '', #231, #232, #233 );
#181 = SURFACE_SIDE_STYLE( '', ( #234 ) );
#182 = EDGE_LOOP( '', ( #235 ) );
#183 = AXIS2_PLACEMENT_3D( '', #236, #237, #238 );
#184 = SURFACE_SIDE_STYLE( '', ( #239 ) );
#185 = EDGE_LOOP( '', ( #240 ) );
#186 = EDGE_LOOP( '', ( #241 ) );
#187 = AXIS2_PLACEMENT_3D( '', #242, #243, #244 );
#188 = SURFACE_SIDE_STYLE( '', ( #245 ) );
#189 = EDGE_LOOP( '', ( #246 ) );
#190 = EDGE_LOOP( '', ( #247 ) );
#191 = AXIS2_PLACEMENT_3D( '', #248, #249, #250 );
#192 = SURFACE_SIDE_STYLE( '', ( #251 ) );
#193 = EDGE_LOOP( '', ( #252 ) );
#194 = EDGE_LOOP( '', ( #253 ) );
#195 = AXIS2_PLACEMENT_3D( '', #254, #255, #256 );
#196 = SURFACE_SIDE_STYLE( '', ( #257 ) );
#197 = EDGE_LOOP( '', ( #258 ) );
#198 = EDGE_LOOP( '', ( #259 ) );
#199 = AXIS2_PLACEMENT_3D( '', #260, #261, #262 );
#201 = SURFACE_STYLE_FILL_AREA( #263 );
#202 = ORIENTED_EDGE( '', *, *, #264, .F. );
#203 = ORIENTED_EDGE( '', *, *, #265, .F. );
#204 = CARTESIAN_POINT( '', ( 1.65538293908885E-015, 0.000000000000000, 0.500000000000028 ) );
#205 = DIRECTION( '', ( -4.51851065563303E-017, 0.000000000000000, 1.00000000000000 ) );
#206 = DIRECTION( '', ( 1.00000000000000, 0.000000000000000, 4.51851065563303E-017 ) );
#207 = SURFACE_STYLE_FILL_AREA( #266 );
#208 = ORIENTED_EDGE( '', *, *, #267, .F. );
#209 = VERTEX_POINT( '', #268 );
#210 = CARTESIAN_POINT( '', ( 0.000000000000000, 0.000000000000000, 33.0000000000000 ) );
#211 = DIRECTION( '', ( 0.000000000000000, -0.000000000000000, -1.00000000000000 ) );
#212 = DIRECTION( '', ( 0.000000000000000, -1.00000000000000, 0.000000000000000 ) );
#213 = SURFACE_STYLE_FILL_AREA( #269 );
#214 = ORIENTED_EDGE( '', *, *, #270, .T. );
#215 = ORIENTED_EDGE( '', *, *, #271, .F. );
#216 = CARTESIAN_POINT( '', ( 0.000000000000000, 0.000000000000000, 2.99999999999992 ) );
#217 = DIRECTION( '', ( -0.000000000000000, 0.000000000000000, -1.00000000000000 ) );
#218 = DIRECTION( '', ( 0.000000000000000, 1.00000000000000, 0.000000000000000 ) );
#219 = SURFACE_STYLE_FILL_AREA( #272 );
#220 = ORIENTED_EDGE( '', *, *, #264, .T. );
#221 = ORIENTED_EDGE( '', *, *, #273, .T. );
#222 = CARTESIAN_POINT( '', ( 7.15294683846819E-015, 0.000000000000000, 3.09765044815227E-014 ) );
#223 = DIRECTION( '', ( -4.51851065563303E-017, 0.000000000000000, 1.00000000000000 ) );
#224 = DIRECTION( '', ( 1.00000000000000, 0.000000000000000, 4.51851065563303E-017 ) );
#225 = SURFACE_STYLE_FILL_AREA( #274 );
#226 = ORIENTED_EDGE( '', *, *, #265, .T. );
#227 = ORIENTED_EDGE( '', *, *, #275, .F. );
#228 = SURFACE_STYLE_FILL_AREA( #276 );
#229 = ORIENTED_EDGE( '', *, *, #277, .T. );
#230 = ORIENTED_EDGE( '', *, *, #278, .T. );
#231 = CARTESIAN_POINT( '', ( 0.000000000000000, 0.000000000000000, 57.1500000000000 ) );
#232 = DIRECTION( '', ( -0.000000000000000, -0.000000000000000, -1.00000000000000 ) );
#233 = DIRECTION( '', ( 1.00000000000000, 0.000000000000000, 0.000000000000000 ) );
#234 = SURFACE_STYLE_FILL_AREA( #279 );
#235 = ORIENTED_EDGE( '', *, *, #275, .T. );
#236 = CARTESIAN_POINT( '', ( 0.000000000000000, 0.000000000000000, 75.0000000000000 ) );
#237 = DIRECTION( '', ( -4.51851065563303E-017, 0.000000000000000, 1.00000000000000 ) );
#238 = DIRECTION( '', ( 1.00000000000000, 0.000000000000000, 4.51851065563303E-017 ) );
#239 = SURFACE_STYLE_FILL_AREA( #280 );
#240 = ORIENTED_EDGE( '', *, *, #281, .T. );
#241 = ORIENTED_EDGE( '', *, *, #278, .F. );
#242 = CARTESIAN_POINT( '', ( 9.00000000000000, 0.000000000000000, 3.00000000000000 ) );
#243 = DIRECTION( '', ( 0.000000000000000, 0.000000000000000, -1.00000000000000 ) );
#244 = DIRECTION( '', ( -1.00000000000000, 0.000000000000000, 0.000000000000000 ) );
#245 = SURFACE_STYLE_FILL_AREA( #282 );
#246 = ORIENTED_EDGE( '', *, *, #267, .T. );
#247 = ORIENTED_EDGE( '', *, *, #271, .T. );
#248 = CARTESIAN_POINT( '', ( 0.000000000000000, 0.000000000000000, 2.99999999999992 ) );
#249 = DIRECTION( '', ( -0.000000000000000, 0.000000000000000, -1.00000000000000 ) );
#250 = DIRECTION( '', ( 0.000000000000000, 1.00000000000000, 0.000000000000000 ) );
#251 = SURFACE_STYLE_FILL_AREA( #283 );
#252 = ORIENTED_EDGE( '', *, *, #277, .F. );
#253 = ORIENTED_EDGE( '', *, *, #273, .F. );
#254 = CARTESIAN_POINT( '', ( 0.000000000000000, 0.000000000000000, 0.500000000000028 ) );
#255 = DIRECTION( '', ( -4.51851065563303E-017, 0.000000000000000, 1.00000000000000 ) );
#256 = DIRECTION( '', ( 1.00000000000000, 0.000000000000000, 4.51851065563303E-017 ) );
#257 = SURFACE_STYLE_FILL_AREA( #284 );
#258 = ORIENTED_EDGE( '', *, *, #270, .F. );
#259 = ORIENTED_EDGE( '', *, *, #281, .F. );
#260 = CARTESIAN_POINT( '', ( 0.000000000000000, 0.000000000000000, 3.00000000000000 ) );
#261 = DIRECTION( '', ( -0.000000000000000, 0.000000000000000, -1.00000000000000 ) );
#262 = DIRECTION( '', ( -1.00000000000000, 0.000000000000000, 0.000000000000000 ) );
#263 = FILL_AREA_STYLE( '', ( #285 ) );
#264 = EDGE_CURVE( '', #286, #286, #287, .F. );
#265 = EDGE_CURVE( '', #288, #288, #289, .T. );
#266 = FILL_AREA_STYLE( '', ( #290 ) );
#267 = EDGE_CURVE( '', #291, #291, #292, .T. );
#268 = CARTESIAN_POINT( '', ( 0.000000000000000, 0.000000000000000, 37.1564533321231 ) );
#269 = FILL_AREA_STYLE( '', ( #293 ) );
#270 = EDGE_CURVE( '', #294, #294, #295, .T. );
#271 = EDGE_CURVE( '', #296, #296, #297, .T. );
#272 = FILL_AREA_STYLE( '', ( #298 ) );
#273 = EDGE_CURVE( '', #299, #299, #300, .T. );
#274 = FILL_AREA_STYLE( '', ( #301 ) );
#275 = EDGE_CURVE( '', #302, #302, #303, .T. );
#276 = FILL_AREA_STYLE( '', ( #304 ) );
#277 = EDGE_CURVE( '', #305, #305, #306, .F. );
#278 = EDGE_CURVE( '', #307, #307, #308, .T. );
#279 = FILL_AREA_STYLE( '', ( #309 ) );
#280 = FILL_AREA_STYLE( '', ( #310 ) );
#281 = EDGE_CURVE( '', #311, #311, #312, .F. );
#282 = FILL_AREA_STYLE( '', ( #313 ) );
#283 = FILL_AREA_STYLE( '', ( #314 ) );
#284 = FILL_AREA_STYLE( '', ( #315 ) );
#285 = FILL_AREA_STYLE_COLOUR( '', #316 );
#286 = VERTEX_POINT( '', #317 );
#287 = CIRCLE( '', #318, 10.6483597478332 );
#288 = VERTEX_POINT( '', #319 );
#289 = CIRCLE( '', #320, 11.1191785160595 );
#290 = FILL_AREA_STYLE_COLOUR( '', #321 );
#291 = VERTEX_POINT( '', #322 );
#292 = CIRCLE( '', #323, 6.91750000000000 );
#293 = FILL_AREA_STYLE_COLOUR( '', #324 );
#294 = VERTEX_POINT( '', #325 );
#295 = CIRCLE( '', #326, 6.91750000000000 );
#296 = VERTEX_POINT( '', #327 );
#297 = CIRCLE( '', #328, 6.91750000000000 );
#298 = FILL_AREA_STYLE_COLOUR( '', #329 );
#299 = VERTEX_POINT( '', #330 );
#300 = CIRCLE( '', #331, 9.50000000000000 );
#301 = FILL_AREA_STYLE_COLOUR( '', #332 );
#302 = VERTEX_POINT( '', #333 );
#303 = CIRCLE( '', #334, 9.24494805326207 );
#304 = FILL_AREA_STYLE_COLOUR( '', #335 );
#305 = VERTEX_POINT( '', #336 );
#306 = CIRCLE( '', #337, 9.00000000000000 );
#307 = VERTEX_POINT( '', #338 );
#308 = CIRCLE( '', #339, 9.00000000000000 );
#309 = FILL_AREA_STYLE_COLOUR( '', #340 );
#310 = FILL_AREA_STYLE_COLOUR( '', #341 );
#311 = VERTEX_POINT( '', #342 );
#312 = CIRCLE( '', #343, 7.41750000000000 );
#313 = FILL_AREA_STYLE_COLOUR( '', #344 );
#314 = FILL_AREA_STYLE_COLOUR( '', #345 );
#315 = FILL_AREA_STYLE_COLOUR( '', #346 );
#316 = COLOUR_RGB( '', 0.200000002980232, 0.200000002980232, 0.200000002980232 );
#317 = CARTESIAN_POINT( '', ( 10.6483597478332, 0.000000000000000, 3.14893294029414E-014 ) );
#318 = AXIS2_PLACEMENT_3D( '', #347, #348, #349 );
#319 = CARTESIAN_POINT( '', ( 11.1191785160595, 0.000000000000000, 0.331685747823087 ) );
#320 = AXIS2_PLACEMENT_3D( '', #350, #351, #352 );
#321 = COLOUR_RGB( '', 0.200000002980232, 0.200000002980232, 0.200000002980232 );
#322 = CARTESIAN_POINT( '', ( 0.000000000000000, -6.91750000000000, 33.0000000000000 ) );
#323 = AXIS2_PLACEMENT_3D( '', #353, #354, #355 );
#324 = COLOUR_RGB( '', 0.752941191196442, 0.752941191196442, 0.752941191196442 );
#325 = CARTESIAN_POINT( '', ( -6.91750000000000, 0.000000000000000, 3.50000000000000 ) );
#326 = AXIS2_PLACEMENT_3D( '', #356, #357, #358 );
#327 = CARTESIAN_POINT( '', ( 0.000000000000000, 6.91750000000000, 30.0000000000000 ) );
#328 = AXIS2_PLACEMENT_3D( '', #359, #360, #361 );
#329 = COLOUR_RGB( '', 0.200000002980232, 0.200000002980232, 0.200000002980232 );
#330 = CARTESIAN_POINT( '', ( 9.50000000000000, 0.000000000000000, 3.14374406453706E-014 ) );
#331 = AXIS2_PLACEMENT_3D( '', #362, #363, #364 );
#332 = COLOUR_RGB( '', 0.200000002980232, 0.200000002980232, 0.200000002980232 );
#333 = CARTESIAN_POINT( '', ( 9.24494805326207, 0.000000000000000, 78.8119464178399 ) );
#334 = AXIS2_PLACEMENT_3D( '', #365, #366, #367 );
#335 = COLOUR_RGB( '', 0.200000002980232, 0.200000002980232, 0.200000002980232 );
#336 = CARTESIAN_POINT( '', ( 9.00000000000000, 0.000000000000000, 0.500000000000028 ) );
#337 = AXIS2_PLACEMENT_3D( '', #368, #369, #370 );
#338 = CARTESIAN_POINT( '', ( 9.00000000000000, 0.000000000000000, 3.00000000000006 ) );
#339 = AXIS2_PLACEMENT_3D( '', #371, #372, #373 );
#340 = COLOUR_RGB( '', 0.200000002980232, 0.200000002980232, 0.200000002980232 );
#341 = COLOUR_RGB( '', 0.200000002980232, 0.200000002980232, 0.200000002980232 );
#342 = CARTESIAN_POINT( '', ( -7.41750000000000, 0.000000000000000, 3.00000000000000 ) );
#343 = AXIS2_PLACEMENT_3D( '', #374, #375, #376 );
#344 = COLOUR_RGB( '', 0.200000002980232, 0.200000002980232, 0.200000002980232 );
#345 = COLOUR_RGB( '', 0.200000002980232, 0.200000002980232, 0.200000002980232 );
#346 = COLOUR_RGB( '', 0.200000002980232, 0.200000002980232, 0.200000002980232 );
#347 = CARTESIAN_POINT( '', ( 1.67797549236702E-015, 0.000000000000000, 3.10081821330854E-014 ) );
#348 = DIRECTION( '', ( -4.51851065563303E-017, 0.000000000000000, 1.00000000000000 ) );
#349 = DIRECTION( '', ( 1.00000000000000, 0.000000000000000, 4.51851065563303E-017 ) );
#350 = CARTESIAN_POINT( '', ( 1.66298823650842E-015, 0.000000000000000, 0.331685747823087 ) );
#351 = DIRECTION( '', ( -4.51851065563303E-017, 0.000000000000000, 1.00000000000000 ) );
#352 = DIRECTION( '', ( 1.00000000000000, 0.000000000000000, 4.51851065563303E-017 ) );
#353 = CARTESIAN_POINT( '', ( 0.000000000000000, 0.000000000000000, 33.0000000000000 ) );
#354 = DIRECTION( '', ( 0.000000000000000, 0.000000000000000, 1.00000000000000 ) );
#355 = DIRECTION( '', ( 0.000000000000000, -1.00000000000000, 0.000000000000000 ) );
#356 = CARTESIAN_POINT( '', ( 0.000000000000000, 0.000000000000000, 3.50000000000000 ) );
#357 = DIRECTION( '', ( 0.000000000000000, 0.000000000000000, -1.00000000000000 ) );
#358 = DIRECTION( '', ( -1.00000000000000, 0.000000000000000, 0.000000000000000 ) );
#359 = CARTESIAN_POINT( '', ( 0.000000000000000, 0.000000000000000, 30.0000000000000 ) );
#360 = DIRECTION( '', ( 0.000000000000000, 0.000000000000000, -1.00000000000000 ) );
#361 = DIRECTION( '', ( 0.000000000000000, 1.00000000000000, 0.000000000000000 ) );
#362 = CARTESIAN_POINT( '', ( 2.25925532781650E-017, 0.000000000000000, 3.10081821330854E-014 ) );
#363 = DIRECTION( '', ( -4.51851065563303E-017, 0.000000000000000, 1.00000000000000 ) );
#364 = DIRECTION( '', ( 1.00000000000000, 0.000000000000000, 4.51851065563303E-017 ) );
#365 = CARTESIAN_POINT( '', ( -2.09261023372116E-015, 0.000000000000000, 78.8119464178399 ) );
#366 = DIRECTION( '', ( -4.51851065563303E-017, 0.000000000000000, 1.00000000000000 ) );
#367 = DIRECTION( '', ( 1.00000000000000, 0.000000000000000, 4.51851065563303E-017 ) );
#368 = CARTESIAN_POINT( '', ( 0.000000000000000, 0.000000000000000, 0.500000000000028 ) );
#369 = DIRECTION( '', ( -4.51851065563303E-017, 0.000000000000000, 1.00000000000000 ) );
#370 = DIRECTION( '', ( 1.00000000000000, 0.000000000000000, 4.51851065563303E-017 ) );
#371 = CARTESIAN_POINT( '', ( 0.000000000000000, 0.000000000000000, 3.00000000000006 ) );
#372 = DIRECTION( '', ( 0.000000000000000, 0.000000000000000, 1.00000000000000 ) );
#373 = DIRECTION( '', ( 1.00000000000000, 0.000000000000000, 0.000000000000000 ) );
#374 = CARTESIAN_POINT( '', ( 0.000000000000000, 0.000000000000000, 3.00000000000000 ) );
#375 = DIRECTION( '', ( 0.000000000000000, 0.000000000000000, -1.00000000000000 ) );
#376 = DIRECTION( '', ( -1.00000000000000, 0.000000000000000, 0.000000000000000 ) );
ENDSEC;
END-ISO-10303-21;
