ISO-10303-21;
HEADER;
FILE_DESCRIPTION( ( 'Unknown' ), '1' );
FILE_NAME( 'E:/98-Dis_3D_per_controllo/IOB/7115010_IOB35.stp', 'Unknown', ( 'Unknown' ), ( 'Unknown' ), 'PSStep 11.0', 'Unknown', '  ' );
FILE_SCHEMA( ( 'AUTOMOTIVE_DESIGN { 1 0 10303 214 1 1 1 1 }' ) );
ENDSEC;
DATA;
#1 = MECHANICAL_DESIGN_GEOMETRIC_PRESENTATION_REPRESENTATION( ' ', ( #10, #11, #12, #13, #14, #15, #16, #17 ), #6 );
#2 = PRODUCT_DEFINITION_CONTEXT( '', #18, 'design' );
#3 = APPLICATION_PROTOCOL_DEFINITION( 'INTERNATIONAL STANDARD', 'automotive_design', 2001, #18 );
#4 = PRODUCT_CATEGORY_RELATIONSHIP( 'NONE', 'NONE', #19, #20 );
#5 = SHAPE_DEFINITION_REPRESENTATION( #21, #22 );
#6 =  ( GEOMETRIC_REPRESENTATION_CONTEXT( 3 )GLOBAL_UNCERTAINTY_ASSIGNED_CONTEXT( ( #25 ) )GLOBAL_UNIT_ASSIGNED_CONTEXT( ( #27, #28, #29 ) )REPRESENTATION_CONTEXT( 'NONE', 'WORKSPACE' ) );
#10 = STYLED_ITEM( '', ( #31 ), #32 );
#11 = STYLED_ITEM( '', ( #33 ), #34 );
#12 = STYLED_ITEM( '', ( #35 ), #36 );
#13 = STYLED_ITEM( '', ( #37 ), #38 );
#14 = STYLED_ITEM( '', ( #39 ), #40 );
#15 = STYLED_ITEM( '', ( #41 ), #42 );
#16 = STYLED_ITEM( '', ( #43 ), #44 );
#17 = STYLED_ITEM( '', ( #45 ), #46 );
#18 = APPLICATION_CONTEXT( 'core data for automotive mechanical design processes' );
#19 = PRODUCT_CATEGORY( 'part', 'NONE' );
#20 = PRODUCT_RELATED_PRODUCT_CATEGORY( 'detail', ' ', ( #47 ) );
#21 = PRODUCT_DEFINITION_SHAPE( 'NONE', 'NONE', #48 );
#22 = ADVANCED_BREP_SHAPE_REPRESENTATION( '1', ( #49, #50 ), #6 );
#25 = UNCERTAINTY_MEASURE_WITH_UNIT( LENGTH_MEASURE( 0.00100000000000000 ), #27, '', '' );
#27 =  ( CONVERSION_BASED_UNIT( 'MILLIMETRE', #53 )LENGTH_UNIT(  )NAMED_UNIT( #56 ) );
#28 =  ( NAMED_UNIT( #58 )PLANE_ANGLE_UNIT(  )SI_UNIT( $, .RADIAN. ) );
#29 =  ( NAMED_UNIT( #58 )SI_UNIT( $, .STERADIAN. )SOLID_ANGLE_UNIT(  ) );
#31 = PRESENTATION_STYLE_ASSIGNMENT( ( #64 ) );
#32 = ADVANCED_FACE( '', ( #65, #66 ), #67, .T. );
#33 = PRESENTATION_STYLE_ASSIGNMENT( ( #68 ) );
#34 = ADVANCED_FACE( '', ( #69, #70 ), #71, .F. );
#35 = PRESENTATION_STYLE_ASSIGNMENT( ( #72 ) );
#36 = ADVANCED_FACE( '', ( #73, #74 ), #75, .F. );
#37 = PRESENTATION_STYLE_ASSIGNMENT( ( #76 ) );
#38 = ADVANCED_FACE( '', ( #77, #78 ), #79, .F. );
#39 = PRESENTATION_STYLE_ASSIGNMENT( ( #80 ) );
#40 = ADVANCED_FACE( '', ( #81 ), #82, .T. );
#41 = PRESENTATION_STYLE_ASSIGNMENT( ( #83 ) );
#42 = ADVANCED_FACE( '', ( #84, #85 ), #86, .F. );
#43 = PRESENTATION_STYLE_ASSIGNMENT( ( #87 ) );
#44 = ADVANCED_FACE( '', ( #88, #89 ), #90, .T. );
#45 = PRESENTATION_STYLE_ASSIGNMENT( ( #91 ) );
#46 = ADVANCED_FACE( '', ( #92, #93 ), #94, .F. );
#47 = PRODUCT( '1', '1', 'PART-1-DESC', ( #95 ) );
#48 = PRODUCT_DEFINITION( 'NONE', 'NONE', #96, #2 );
#49 = MANIFOLD_SOLID_BREP( '1', #97 );
#50 = AXIS2_PLACEMENT_3D( '', #98, #99, #100 );
#53 = LENGTH_MEASURE_WITH_UNIT( LENGTH_MEASURE( 1.00000000000000 ), #101 );
#56 = DIMENSIONAL_EXPONENTS( 1.00000000000000, 0.000000000000000, 0.000000000000000, 0.000000000000000, 0.000000000000000, 0.000000000000000, 0.000000000000000 );
#58 = DIMENSIONAL_EXPONENTS( 0.000000000000000, 0.000000000000000, 0.000000000000000, 0.000000000000000, 0.000000000000000, 0.000000000000000, 0.000000000000000 );
#64 = SURFACE_STYLE_USAGE( .BOTH., #102 );
#65 = FACE_OUTER_BOUND( '', #103, .T. );
#66 = FACE_OUTER_BOUND( '', #104, .T. );
#67 = TOROIDAL_SURFACE( '', #105, 10.6483597478332, 0.500000000000000 );
#68 = SURFACE_STYLE_USAGE( .BOTH., #106 );
#69 = FACE_OUTER_BOUND( '', #107, .T. );
#70 = FACE_BOUND( '', #108, .T. );
#71 = CONICAL_SURFACE( '', #109, 4.18800000000000, 1.02974425867665 );
#72 = SURFACE_STYLE_USAGE( .BOTH., #110 );
#73 = FACE_OUTER_BOUND( '', #111, .T. );
#74 = FACE_OUTER_BOUND( '', #112, .T. );
#75 = CYLINDRICAL_SURFACE( '', #113, 4.18800000000000 );
#76 = SURFACE_STYLE_USAGE( .BOTH., #114 );
#77 = FACE_OUTER_BOUND( '', #115, .T. );
#78 = FACE_BOUND( '', #116, .T. );
#79 = PLANE( '', #117 );
#80 = SURFACE_STYLE_USAGE( .BOTH., #118 );
#81 = FACE_OUTER_BOUND( '', #119, .T. );
#82 = SPHERICAL_SURFACE( '', #120, 10.0000000000000 );
#83 = SURFACE_STYLE_USAGE( .BOTH., #121 );
#84 = FACE_OUTER_BOUND( '', #122, .T. );
#85 = FACE_OUTER_BOUND( '', #123, .T. );
#86 = CYLINDRICAL_SURFACE( '', #124, 4.18800000000000 );
#87 = SURFACE_STYLE_USAGE( .BOTH., #125 );
#88 = FACE_OUTER_BOUND( '', #126, .T. );
#89 = FACE_OUTER_BOUND( '', #127, .T. );
#90 = ( BOUNDED_SURFACE(  )B_SPLINE_SURFACE( 3, 3, ( ( #130, #131, #132, #133, #134, #135, #136 ), ( #137, #138, #139, #140, #141, #142, #143 ), ( #144, #145, #146, #147, #148, #149, #150 ), ( #151, #152, #153, #154, #155, #156, #157 ) ), .UNSPECIFIED., .F., .T., .F. )B_SPLINE_SURFACE_WITH_KNOTS( ( 4, 4 ), ( 4, 3, 4 ), ( 0.000000000000000, 6.28318530717959 ), ( -0.343334135324535, 0.0238770139093756, 0.391088163143286 ), .UNSPECIFIED. )GEOMETRIC_REPRESENTATION_ITEM(  )RATIONAL_B_SPLINE_SURFACE( ( ( 1.00000000000000, 0.333333333333333, 0.333333333333333, 1.00000000000000, 0.333333333333333, 0.333333333333333, 1.00000000000000 ), ( 0.955554806733120, 0.318518268911040, 0.318518268911040, 0.955554806733120, 0.318518268911040, 0.318518268911040, 0.955554806733120 ), ( 0.955554806733120, 0.318518268911040, 0.318518268911040, 0.955554806733120, 0.318518268911040, 0.318518268911040, 0.955554806733120 ), ( 1.00000000000000, 0.333333333333333, 0.333333333333333, 1.00000000000000, 0.333333333333333, 0.333333333333333, 1.00000000000000 ) ) )REPRESENTATION_ITEM( '' )SURFACE(  ) );
#91 = SURFACE_STYLE_USAGE( .BOTH., #163 );
#92 = FACE_BOUND( '', #164, .T. );
#93 = FACE_OUTER_BOUND( '', #165, .T. );
#94 = CONICAL_SURFACE( '', #166, 4.68800000000000, 0.785398163397448 );
#95 = PRODUCT_CONTEXT( '', #18, 'mechanical' );
#96 = PRODUCT_DEFINITION_FORMATION_WITH_SPECIFIED_SOURCE( ' ', 'NONE', #47, .NOT_KNOWN. );
#97 = CLOSED_SHELL( '', ( #42, #32, #34, #46, #36, #40, #38, #44 ) );
#98 = CARTESIAN_POINT( '', ( 0.000000000000000, 0.000000000000000, 0.000000000000000 ) );
#99 = DIRECTION( '', ( 0.000000000000000, 0.000000000000000, 1.00000000000000 ) );
#100 = DIRECTION( '', ( 1.00000000000000, 0.000000000000000, 0.000000000000000 ) );
#101 =  ( LENGTH_UNIT(  )NAMED_UNIT( #56 )SI_UNIT( .MILLI., .METRE. ) );
#102 = SURFACE_SIDE_STYLE( '', ( #168 ) );
#103 = EDGE_LOOP( '', ( #169 ) );
#104 = EDGE_LOOP( '', ( #170 ) );
#105 = AXIS2_PLACEMENT_3D( '', #171, #172, #173 );
#106 = SURFACE_SIDE_STYLE( '', ( #174 ) );
#107 = EDGE_LOOP( '', ( #175 ) );
#108 = VERTEX_LOOP( '', #176 );
#109 = AXIS2_PLACEMENT_3D( '', #177, #178, #179 );
#110 = SURFACE_SIDE_STYLE( '', ( #180 ) );
#111 = EDGE_LOOP( '', ( #181 ) );
#112 = EDGE_LOOP( '', ( #182 ) );
#113 = AXIS2_PLACEMENT_3D( '', #183, #184, #185 );
#114 = SURFACE_SIDE_STYLE( '', ( #186 ) );
#115 = EDGE_LOOP( '', ( #187 ) );
#116 = EDGE_LOOP( '', ( #188 ) );
#117 = AXIS2_PLACEMENT_3D( '', #189, #190, #191 );
#118 = SURFACE_SIDE_STYLE( '', ( #192 ) );
#119 = EDGE_LOOP( '', ( #193 ) );
#120 = AXIS2_PLACEMENT_3D( '', #194, #195, #196 );
#121 = SURFACE_SIDE_STYLE( '', ( #197 ) );
#122 = EDGE_LOOP( '', ( #198 ) );
#123 = EDGE_LOOP( '', ( #199 ) );
#124 = AXIS2_PLACEMENT_3D( '', #200, #201, #202 );
#125 = SURFACE_SIDE_STYLE( '', ( #203 ) );
#126 = EDGE_LOOP( '', ( #204 ) );
#127 = EDGE_LOOP( '', ( #205 ) );
#130 = CARTESIAN_POINT( '', ( 9.24494805326208, 0.000000000000000, 78.8119464178399 ) );
#131 = CARTESIAN_POINT( '', ( 9.24494805326208, 18.4898961065242, 78.8119464178399 ) );
#132 = CARTESIAN_POINT( '', ( -9.24494805326208, 18.4898961065242, 78.8119464178399 ) );
#133 = CARTESIAN_POINT( '', ( -9.24494805326208, 0.000000000000000, 78.8119464178399 ) );
#134 = CARTESIAN_POINT( '', ( -9.24494805326208, -18.4898961065242, 78.8119464178399 ) );
#135 = CARTESIAN_POINT( '', ( 9.24494805326208, -18.4898961065242, 78.8119464178399 ) );
#136 = CARTESIAN_POINT( '', ( 9.24494805326208, 0.000000000000000, 78.8119464178399 ) );
#137 = CARTESIAN_POINT( '', ( 19.6838346119524, 0.000000000000000, 53.4949683204228 ) );
#138 = CARTESIAN_POINT( '', ( 19.6838346119524, 39.3676692239049, 53.4949683204228 ) );
#139 = CARTESIAN_POINT( '', ( -19.6838346119524, 39.3676692239049, 53.4949683204228 ) );
#140 = CARTESIAN_POINT( '', ( -19.6838346119524, 0.000000000000000, 53.4949683204228 ) );
#141 = CARTESIAN_POINT( '', ( -19.6838346119524, -39.3676692239049, 53.4949683204228 ) );
#142 = CARTESIAN_POINT( '', ( 19.6838346119524, -39.3676692239049, 53.4949683204228 ) );
#143 = CARTESIAN_POINT( '', ( 19.6838346119524, 0.000000000000000, 53.4949683204228 ) );
#144 = CARTESIAN_POINT( '', ( 20.3376364485368, 0.000000000000000, 26.1181117490635 ) );
#145 = CARTESIAN_POINT( '', ( 20.3376364485368, 40.6752728970736, 26.1181117490635 ) );
#146 = CARTESIAN_POINT( '', ( -20.3376364485368, 40.6752728970736, 26.1181117490635 ) );
#147 = CARTESIAN_POINT( '', ( -20.3376364485368, 0.000000000000000, 26.1181117490635 ) );
#148 = CARTESIAN_POINT( '', ( -20.3376364485368, -40.6752728970736, 26.1181117490635 ) );
#149 = CARTESIAN_POINT( '', ( 20.3376364485368, -40.6752728970736, 26.1181117490635 ) );
#150 = CARTESIAN_POINT( '', ( 20.3376364485368, 0.000000000000000, 26.1181117490635 ) );
#151 = CARTESIAN_POINT( '', ( 11.1191785160595, 0.000000000000000, 0.331685747823100 ) );
#152 = CARTESIAN_POINT( '', ( 11.1191785160595, 22.2383570321190, 0.331685747823100 ) );
#153 = CARTESIAN_POINT( '', ( -11.1191785160595, 22.2383570321190, 0.331685747823099 ) );
#154 = CARTESIAN_POINT( '', ( -11.1191785160595, 0.000000000000000, 0.331685747823099 ) );
#155 = CARTESIAN_POINT( '', ( -11.1191785160595, -22.2383570321190, 0.331685747823099 ) );
#156 = CARTESIAN_POINT( '', ( 11.1191785160595, -22.2383570321190, 0.331685747823100 ) );
#157 = CARTESIAN_POINT( '', ( 11.1191785160595, 0.000000000000000, 0.331685747823100 ) );
#163 = SURFACE_SIDE_STYLE( '', ( #206 ) );
#164 = EDGE_LOOP( '', ( #207 ) );
#165 = EDGE_LOOP( '', ( #208 ) );
#166 = AXIS2_PLACEMENT_3D( '', #209, #210, #211 );
#168 = SURFACE_STYLE_FILL_AREA( #212 );
#169 = ORIENTED_EDGE( '', *, *, #213, .F. );
#170 = ORIENTED_EDGE( '', *, *, #214, .F. );
#171 = CARTESIAN_POINT( '', ( 1.65538293908885E-015, 0.000000000000000, 0.500000000000028 ) );
#172 = DIRECTION( '', ( -4.51851065563303E-017, 0.000000000000000, 1.00000000000000 ) );
#173 = DIRECTION( '', ( 1.00000000000000, 0.000000000000000, 4.51851065563303E-017 ) );
#174 = SURFACE_STYLE_FILL_AREA( #215 );
#175 = ORIENTED_EDGE( '', *, *, #216, .F. );
#176 = VERTEX_POINT( '', #217 );
#177 = CARTESIAN_POINT( '', ( 0.000000000000000, 0.000000000000000, 30.0000000000000 ) );
#178 = DIRECTION( '', ( 0.000000000000000, -0.000000000000000, -1.00000000000000 ) );
#179 = DIRECTION( '', ( 0.000000000000000, -1.00000000000000, 0.000000000000000 ) );
#180 = SURFACE_STYLE_FILL_AREA( #218 );
#181 = ORIENTED_EDGE( '', *, *, #219, .T. );
#182 = ORIENTED_EDGE( '', *, *, #220, .F. );
#183 = CARTESIAN_POINT( '', ( 0.000000000000000, 0.000000000000000, 0.000000000000000 ) );
#184 = DIRECTION( '', ( -0.000000000000000, 0.000000000000000, -1.00000000000000 ) );
#185 = DIRECTION( '', ( 0.000000000000000, 1.00000000000000, 0.000000000000000 ) );
#186 = SURFACE_STYLE_FILL_AREA( #221 );
#187 = ORIENTED_EDGE( '', *, *, #213, .T. );
#188 = ORIENTED_EDGE( '', *, *, #222, .T. );
#189 = CARTESIAN_POINT( '', ( 7.15294683846819E-015, 0.000000000000000, 3.09765044815227E-014 ) );
#190 = DIRECTION( '', ( -4.51851065563303E-017, 0.000000000000000, 1.00000000000000 ) );
#191 = DIRECTION( '', ( 1.00000000000000, 0.000000000000000, 4.51851065563303E-017 ) );
#192 = SURFACE_STYLE_FILL_AREA( #223 );
#193 = ORIENTED_EDGE( '', *, *, #224, .T. );
#194 = CARTESIAN_POINT( '', ( 0.000000000000000, 0.000000000000000, 75.0000000000000 ) );
#195 = DIRECTION( '', ( -4.51851065563303E-017, 0.000000000000000, 1.00000000000000 ) );
#196 = DIRECTION( '', ( 1.00000000000000, 0.000000000000000, 4.51851065563303E-017 ) );
#197 = SURFACE_STYLE_FILL_AREA( #225 );
#198 = ORIENTED_EDGE( '', *, *, #216, .T. );
#199 = ORIENTED_EDGE( '', *, *, #220, .T. );
#200 = CARTESIAN_POINT( '', ( 0.000000000000000, 0.000000000000000, 0.000000000000000 ) );
#201 = DIRECTION( '', ( -0.000000000000000, 0.000000000000000, -1.00000000000000 ) );
#202 = DIRECTION( '', ( 0.000000000000000, 1.00000000000000, 0.000000000000000 ) );
#203 = SURFACE_STYLE_FILL_AREA( #226 );
#204 = ORIENTED_EDGE( '', *, *, #214, .T. );
#205 = ORIENTED_EDGE( '', *, *, #224, .F. );
#206 = SURFACE_STYLE_FILL_AREA( #227 );
#207 = ORIENTED_EDGE( '', *, *, #219, .F. );
#208 = ORIENTED_EDGE( '', *, *, #222, .F. );
#209 = CARTESIAN_POINT( '', ( 0.000000000000000, 0.000000000000000, 3.09765044815227E-014 ) );
#210 = DIRECTION( '', ( -0.000000000000000, 0.000000000000000, -1.00000000000000 ) );
#211 = DIRECTION( '', ( -1.00000000000000, 0.000000000000000, 0.000000000000000 ) );
#212 = FILL_AREA_STYLE( '', ( #228 ) );
#213 = EDGE_CURVE( '', #229, #229, #230, .F. );
#214 = EDGE_CURVE( '', #231, #231, #232, .T. );
#215 = FILL_AREA_STYLE( '', ( #233 ) );
#216 = EDGE_CURVE( '', #234, #234, #235, .T. );
#217 = CARTESIAN_POINT( '', ( 0.000000000000000, 0.000000000000000, 32.5164042724874 ) );
#218 = FILL_AREA_STYLE( '', ( #236 ) );
#219 = EDGE_CURVE( '', #237, #237, #238, .F. );
#220 = EDGE_CURVE( '', #239, #239, #240, .T. );
#221 = FILL_AREA_STYLE( '', ( #241 ) );
#222 = EDGE_CURVE( '', #242, #242, #243, .T. );
#223 = FILL_AREA_STYLE( '', ( #244 ) );
#224 = EDGE_CURVE( '', #245, #245, #246, .T. );
#225 = FILL_AREA_STYLE( '', ( #247 ) );
#226 = FILL_AREA_STYLE( '', ( #248 ) );
#227 = FILL_AREA_STYLE( '', ( #249 ) );
#228 = FILL_AREA_STYLE_COLOUR( '', #250 );
#229 = VERTEX_POINT( '', #251 );
#230 = CIRCLE( '', #252, 10.6483597478332 );
#231 = VERTEX_POINT( '', #253 );
#232 = CIRCLE( '', #254, 11.1191785160595 );
#233 = FILL_AREA_STYLE_COLOUR( '', #255 );
#234 = VERTEX_POINT( '', #256 );
#235 = CIRCLE( '', #257, 4.18800000000000 );
#236 = FILL_AREA_STYLE_COLOUR( '', #258 );
#237 = VERTEX_POINT( '', #259 );
#238 = CIRCLE( '', #260, 4.18800000000000 );
#239 = VERTEX_POINT( '', #261 );
#240 = CIRCLE( '', #262, 4.18800000000000 );
#241 = FILL_AREA_STYLE_COLOUR( '', #263 );
#242 = VERTEX_POINT( '', #264 );
#243 = CIRCLE( '', #265, 4.68800000000000 );
#244 = FILL_AREA_STYLE_COLOUR( '', #266 );
#245 = VERTEX_POINT( '', #267 );
#246 = CIRCLE( '', #268, 9.24494805326207 );
#247 = FILL_AREA_STYLE_COLOUR( '', #269 );
#248 = FILL_AREA_STYLE_COLOUR( '', #270 );
#249 = FILL_AREA_STYLE_COLOUR( '', #271 );
#250 = COLOUR_RGB( '', 0.200000002980232, 0.200000002980232, 0.200000002980232 );
#251 = CARTESIAN_POINT( '', ( 10.6483597478332, 0.000000000000000, 3.14893294029414E-014 ) );
#252 = AXIS2_PLACEMENT_3D( '', #272, #273, #274 );
#253 = CARTESIAN_POINT( '', ( 11.1191785160595, 0.000000000000000, 0.331685747823087 ) );
#254 = AXIS2_PLACEMENT_3D( '', #275, #276, #277 );
#255 = COLOUR_RGB( '', 0.200000002980232, 0.200000002980232, 0.200000002980232 );
#256 = CARTESIAN_POINT( '', ( 0.000000000000000, -4.18800000000000, 30.0000000000000 ) );
#257 = AXIS2_PLACEMENT_3D( '', #278, #279, #280 );
#258 = COLOUR_RGB( '', 0.752941191196442, 0.752941191196442, 0.752941191196442 );
#259 = CARTESIAN_POINT( '', ( 4.18800000000000, 0.000000000000000, 0.500000000000031 ) );
#260 = AXIS2_PLACEMENT_3D( '', #281, #282, #283 );
#261 = CARTESIAN_POINT( '', ( 0.000000000000000, 4.18800000000000, 21.0000000000000 ) );
#262 = AXIS2_PLACEMENT_3D( '', #284, #285, #286 );
#263 = COLOUR_RGB( '', 0.200000002980232, 0.200000002980232, 0.200000002980232 );
#264 = CARTESIAN_POINT( '', ( 4.68800000000000, 0.000000000000000, 3.11883322610588E-014 ) );
#265 = AXIS2_PLACEMENT_3D( '', #287, #288, #289 );
#266 = COLOUR_RGB( '', 0.200000002980232, 0.200000002980232, 0.200000002980232 );
#267 = CARTESIAN_POINT( '', ( 9.24494805326207, 0.000000000000000, 78.8119464178399 ) );
#268 = AXIS2_PLACEMENT_3D( '', #290, #291, #292 );
#269 = COLOUR_RGB( '', 0.200000002980232, 0.200000002980232, 0.200000002980232 );
#270 = COLOUR_RGB( '', 0.200000002980232, 0.200000002980232, 0.200000002980232 );
#271 = COLOUR_RGB( '', 0.200000002980232, 0.200000002980232, 0.200000002980232 );
#272 = CARTESIAN_POINT( '', ( 1.67797549236702E-015, 0.000000000000000, 3.10081821330854E-014 ) );
#273 = DIRECTION( '', ( -4.51851065563303E-017, 0.000000000000000, 1.00000000000000 ) );
#274 = DIRECTION( '', ( 1.00000000000000, 0.000000000000000, 4.51851065563303E-017 ) );
#275 = CARTESIAN_POINT( '', ( 1.66298823650842E-015, 0.000000000000000, 0.331685747823087 ) );
#276 = DIRECTION( '', ( -4.51851065563303E-017, 0.000000000000000, 1.00000000000000 ) );
#277 = DIRECTION( '', ( 1.00000000000000, 0.000000000000000, 4.51851065563303E-017 ) );
#278 = CARTESIAN_POINT( '', ( 0.000000000000000, 0.000000000000000, 30.0000000000000 ) );
#279 = DIRECTION( '', ( 0.000000000000000, 0.000000000000000, 1.00000000000000 ) );
#280 = DIRECTION( '', ( 0.000000000000000, -1.00000000000000, 0.000000000000000 ) );
#281 = CARTESIAN_POINT( '', ( 0.000000000000000, 0.000000000000000, 0.500000000000031 ) );
#282 = DIRECTION( '', ( 0.000000000000000, 0.000000000000000, 1.00000000000000 ) );
#283 = DIRECTION( '', ( 1.00000000000000, 0.000000000000000, 0.000000000000000 ) );
#284 = CARTESIAN_POINT( '', ( 0.000000000000000, 0.000000000000000, 21.0000000000000 ) );
#285 = DIRECTION( '', ( 0.000000000000000, 0.000000000000000, -1.00000000000000 ) );
#286 = DIRECTION( '', ( 0.000000000000000, 1.00000000000000, 0.000000000000000 ) );
#287 = CARTESIAN_POINT( '', ( 0.000000000000000, 0.000000000000000, 3.09765044815227E-014 ) );
#288 = DIRECTION( '', ( -4.51851065563303E-017, 0.000000000000000, 1.00000000000000 ) );
#289 = DIRECTION( '', ( 1.00000000000000, 0.000000000000000, 4.51851065563303E-017 ) );
#290 = CARTESIAN_POINT( '', ( -2.09261023372116E-015, 0.000000000000000, 78.8119464178399 ) );
#291 = DIRECTION( '', ( -4.51851065563303E-017, 0.000000000000000, 1.00000000000000 ) );
#292 = DIRECTION( '', ( 1.00000000000000, 0.000000000000000, 4.51851065563303E-017 ) );
ENDSEC;
END-ISO-10303-21;
