ISO-10303-21;
HEADER;
FILE_DESCRIPTION( ( 'Unknown' ), '1' );
FILE_NAME( '//SBS2003/HD_Usb/Disegni/08_LIB/Users_3D/PROD_GAMM_3D/TSF/7313007_TSF_4.5.stp', 'Unknown', ( 'Unknown' ), ( 'Unknown' ), 'PSStep 14.0', 'Unknown', '  ' );
FILE_SCHEMA( ( 'AUTOMOTIVE_DESIGN { 1 0 10303 214 1 1 1 1 }' ) );
ENDSEC;
DATA;
#1 = MECHANICAL_DESIGN_GEOMETRIC_PRESENTATION_REPRESENTATION( ' ', ( #10, #11, #12, #13, #14, #15, #16, #17 ), #6 );
#2 = PRODUCT_DEFINITION_CONTEXT( '', #18, 'design' );
#3 = APPLICATION_PROTOCOL_DEFINITION( 'international standard', 'automotive_design', 2001, #18 );
#4 = PRODUCT_CATEGORY_RELATIONSHIP( 'NONE', 'NONE', #19, #20 );
#5 = SHAPE_DEFINITION_REPRESENTATION( #21, #22 );
#6 =  ( GEOMETRIC_REPRESENTATION_CONTEXT( 3 )GLOBAL_UNCERTAINTY_ASSIGNED_CONTEXT( ( #25 ) )GLOBAL_UNIT_ASSIGNED_CONTEXT( ( #27, #28, #29 ) )REPRESENTATION_CONTEXT( 'NONE', 'WORKSPACE' ) );
#10 = STYLED_ITEM( '', ( #31 ), #32 );
#11 = STYLED_ITEM( '', ( #33 ), #34 );
#12 = STYLED_ITEM( '', ( #35 ), #36 );
#13 = STYLED_ITEM( '', ( #37 ), #38 );
#14 = STYLED_ITEM( '', ( #39 ), #40 );
#15 = STYLED_ITEM( '', ( #41 ), #42 );
#16 = STYLED_ITEM( '', ( #43 ), #44 );
#17 = STYLED_ITEM( '', ( #45 ), #46 );
#18 = APPLICATION_CONTEXT( 'core data for automotive mechanical design processes' );
#19 = PRODUCT_CATEGORY( 'part', 'NONE' );
#20 = PRODUCT_RELATED_PRODUCT_CATEGORY( 'detail', ' ', ( #47 ) );
#21 = PRODUCT_DEFINITION_SHAPE( 'NONE', 'NONE', #48 );
#22 = ADVANCED_BREP_SHAPE_REPRESENTATION( '1', ( #49, #50 ), #6 );
#25 = UNCERTAINTY_MEASURE_WITH_UNIT( LENGTH_MEASURE( 0.00100000000000000 ), #27, '', '' );
#27 =  ( CONVERSION_BASED_UNIT( 'MILLIMETRE', #53 )LENGTH_UNIT(  )NAMED_UNIT( #56 ) );
#28 =  ( NAMED_UNIT( #58 )PLANE_ANGLE_UNIT(  )SI_UNIT( $, .RADIAN. ) );
#29 =  ( NAMED_UNIT( #58 )SI_UNIT( $, .STERADIAN. )SOLID_ANGLE_UNIT(  ) );
#31 = PRESENTATION_STYLE_ASSIGNMENT( ( #64 ) );
#32 = ADVANCED_FACE( '', ( #65 ), #66, .F. );
#33 = PRESENTATION_STYLE_ASSIGNMENT( ( #67 ) );
#34 = ADVANCED_FACE( '', ( #68, #69 ), #70, .T. );
#35 = PRESENTATION_STYLE_ASSIGNMENT( ( #71 ) );
#36 = ADVANCED_FACE( '', ( #72, #73 ), #74, .T. );
#37 = PRESENTATION_STYLE_ASSIGNMENT( ( #75 ) );
#38 = ADVANCED_FACE( '', ( #76, #77 ), #78, .F. );
#39 = PRESENTATION_STYLE_ASSIGNMENT( ( #79 ) );
#40 = ADVANCED_FACE( '', ( #80, #81 ), #82, .F. );
#41 = PRESENTATION_STYLE_ASSIGNMENT( ( #83 ) );
#42 = ADVANCED_FACE( '', ( #84, #85 ), #86, .F. );
#43 = PRESENTATION_STYLE_ASSIGNMENT( ( #87 ) );
#44 = ADVANCED_FACE( '', ( #88 ), #89, .F. );
#45 = PRESENTATION_STYLE_ASSIGNMENT( ( #90 ) );
#46 = ADVANCED_FACE( '', ( #91, #92 ), #93, .T. );
#47 = PRODUCT( '1', '1', 'PART-1-DESC', ( #94 ) );
#48 = PRODUCT_DEFINITION( 'NONE', 'NONE', #95, #2 );
#49 = MANIFOLD_SOLID_BREP( '1', #96 );
#50 = AXIS2_PLACEMENT_3D( '', #97, #98, #99 );
#53 = LENGTH_MEASURE_WITH_UNIT( LENGTH_MEASURE( 1.00000000000000 ), #100 );
#56 = DIMENSIONAL_EXPONENTS( 1.00000000000000, 0.000000000000000, 0.000000000000000, 0.000000000000000, 0.000000000000000, 0.000000000000000, 0.000000000000000 );
#58 = DIMENSIONAL_EXPONENTS( 0.000000000000000, 0.000000000000000, 0.000000000000000, 0.000000000000000, 0.000000000000000, 0.000000000000000, 0.000000000000000 );
#64 = SURFACE_STYLE_USAGE( .BOTH., #101 );
#65 = FACE_OUTER_BOUND( '', #102, .T. );
#66 = PLANE( '', #103 );
#67 = SURFACE_STYLE_USAGE( .BOTH., #104 );
#68 = FACE_BOUND( '', #105, .T. );
#69 = FACE_OUTER_BOUND( '', #106, .T. );
#70 = CONICAL_SURFACE( '', #107, 2.25000000000000, 0.785398163397446 );
#71 = SURFACE_STYLE_USAGE( .BOTH., #108 );
#72 = FACE_OUTER_BOUND( '', #109, .T. );
#73 = FACE_OUTER_BOUND( '', #110, .T. );
#74 = CYLINDRICAL_SURFACE( '', #111, 2.25000000000000 );
#75 = SURFACE_STYLE_USAGE( .BOTH., #112 );
#76 = FACE_OUTER_BOUND( '', #113, .T. );
#77 = FACE_OUTER_BOUND( '', #114, .T. );
#78 = CYLINDRICAL_SURFACE( '', #115, 1.75000000000000 );
#79 = SURFACE_STYLE_USAGE( .BOTH., #116 );
#80 = FACE_OUTER_BOUND( '', #117, .T. );
#81 = FACE_BOUND( '', #118, .T. );
#82 = PLANE( '', #119 );
#83 = SURFACE_STYLE_USAGE( .BOTH., #120 );
#84 = FACE_BOUND( '', #121, .T. );
#85 = FACE_OUTER_BOUND( '', #122, .T. );
#86 = PLANE( '', #123 );
#87 = SURFACE_STYLE_USAGE( .BOTH., #124 );
#88 = FACE_OUTER_BOUND( '', #125, .T. );
#89 = PLANE( '', #126 );
#90 = SURFACE_STYLE_USAGE( .BOTH., #127 );
#91 = FACE_OUTER_BOUND( '', #128, .T. );
#92 = FACE_OUTER_BOUND( '', #129, .T. );
#93 = CYLINDRICAL_SURFACE( '', #130, 4.00000000000000 );
#94 = PRODUCT_CONTEXT( '', #18, 'mechanical' );
#95 = PRODUCT_DEFINITION_FORMATION_WITH_SPECIFIED_SOURCE( ' ', 'NONE', #47, .NOT_KNOWN. );
#96 = CLOSED_SHELL( '', ( #32, #34, #42, #38, #44, #36, #40, #46 ) );
#97 = CARTESIAN_POINT( '', ( 0.000000000000000, 0.000000000000000, 0.000000000000000 ) );
#98 = DIRECTION( '', ( 0.000000000000000, 0.000000000000000, 1.00000000000000 ) );
#99 = DIRECTION( '', ( 1.00000000000000, 0.000000000000000, 0.000000000000000 ) );
#100 =  ( LENGTH_UNIT(  )NAMED_UNIT( #56 )SI_UNIT( .MILLI., .METRE. ) );
#101 = SURFACE_SIDE_STYLE( '', ( #132 ) );
#102 = EDGE_LOOP( '', ( #133 ) );
#103 = AXIS2_PLACEMENT_3D( '', #134, #135, #136 );
#104 = SURFACE_SIDE_STYLE( '', ( #137 ) );
#105 = EDGE_LOOP( '', ( #138 ) );
#106 = EDGE_LOOP( '', ( #139 ) );
#107 = AXIS2_PLACEMENT_3D( '', #140, #141, #142 );
#108 = SURFACE_SIDE_STYLE( '', ( #143 ) );
#109 = EDGE_LOOP( '', ( #144 ) );
#110 = EDGE_LOOP( '', ( #145 ) );
#111 = AXIS2_PLACEMENT_3D( '', #146, #147, #148 );
#112 = SURFACE_SIDE_STYLE( '', ( #149 ) );
#113 = EDGE_LOOP( '', ( #150 ) );
#114 = EDGE_LOOP( '', ( #151 ) );
#115 = AXIS2_PLACEMENT_3D( '', #152, #153, #154 );
#116 = SURFACE_SIDE_STYLE( '', ( #155 ) );
#117 = EDGE_LOOP( '', ( #156 ) );
#118 = EDGE_LOOP( '', ( #157 ) );
#119 = AXIS2_PLACEMENT_3D( '', #158, #159, #160 );
#120 = SURFACE_SIDE_STYLE( '', ( #161 ) );
#121 = EDGE_LOOP( '', ( #162 ) );
#122 = EDGE_LOOP( '', ( #163 ) );
#123 = AXIS2_PLACEMENT_3D( '', #164, #165, #166 );
#124 = SURFACE_SIDE_STYLE( '', ( #167 ) );
#125 = EDGE_LOOP( '', ( #168 ) );
#126 = AXIS2_PLACEMENT_3D( '', #169, #170, #171 );
#127 = SURFACE_SIDE_STYLE( '', ( #172 ) );
#128 = EDGE_LOOP( '', ( #173 ) );
#129 = EDGE_LOOP( '', ( #174 ) );
#130 = AXIS2_PLACEMENT_3D( '', #175, #176, #177 );
#132 = SURFACE_STYLE_FILL_AREA( #178 );
#133 = ORIENTED_EDGE( '', *, *, #179, .T. );
#134 = CARTESIAN_POINT( '', ( 5.39714353218478E-016, 0.000000000000000, 0.000000000000000 ) );
#135 = DIRECTION( '', ( 0.000000000000000, 0.000000000000000, 1.00000000000000 ) );
#136 = DIRECTION( '', ( 1.00000000000000, 0.000000000000000, 0.000000000000000 ) );
#137 = SURFACE_STYLE_FILL_AREA( #180 );
#138 = ORIENTED_EDGE( '', *, *, #179, .F. );
#139 = ORIENTED_EDGE( '', *, *, #181, .F. );
#140 = CARTESIAN_POINT( '', ( 0.000000000000000, 0.000000000000000, 0.300000000000000 ) );
#141 = DIRECTION( '', ( -0.000000000000000, -0.000000000000000, 1.00000000000000 ) );
#142 = DIRECTION( '', ( 1.00000000000000, 0.000000000000000, 0.000000000000000 ) );
#143 = SURFACE_STYLE_FILL_AREA( #182 );
#144 = ORIENTED_EDGE( '', *, *, #181, .T. );
#145 = ORIENTED_EDGE( '', *, *, #183, .F. );
#146 = CARTESIAN_POINT( '', ( 0.000000000000000, 0.000000000000000, 57.1500000000000 ) );
#147 = DIRECTION( '', ( -0.000000000000000, -0.000000000000000, -1.00000000000000 ) );
#148 = DIRECTION( '', ( 1.00000000000000, 0.000000000000000, 0.000000000000000 ) );
#149 = SURFACE_STYLE_FILL_AREA( #184 );
#150 = ORIENTED_EDGE( '', *, *, #185, .F. );
#151 = ORIENTED_EDGE( '', *, *, #186, .F. );
#152 = CARTESIAN_POINT( '', ( 0.000000000000000, 0.000000000000000, 6.00000000000000 ) );
#153 = DIRECTION( '', ( -0.000000000000000, -0.000000000000000, 1.00000000000000 ) );
#154 = DIRECTION( '', ( 0.000000000000000, -1.00000000000000, 0.000000000000000 ) );
#155 = SURFACE_STYLE_FILL_AREA( #187 );
#156 = ORIENTED_EDGE( '', *, *, #188, .F. );
#157 = ORIENTED_EDGE( '', *, *, #183, .T. );
#158 = CARTESIAN_POINT( '', ( 2.25000000000000, 0.000000000000000, 5.50000000000000 ) );
#159 = DIRECTION( '', ( 0.000000000000000, 0.000000000000000, 1.00000000000000 ) );
#160 = DIRECTION( '', ( 1.00000000000000, 0.000000000000000, 0.000000000000000 ) );
#161 = SURFACE_STYLE_FILL_AREA( #189 );
#162 = ORIENTED_EDGE( '', *, *, #186, .T. );
#163 = ORIENTED_EDGE( '', *, *, #190, .T. );
#164 = CARTESIAN_POINT( '', ( 4.00000000000000, 0.000000000000000, 6.00000000000000 ) );
#165 = DIRECTION( '', ( 0.000000000000000, 0.000000000000000, -1.00000000000000 ) );
#166 = DIRECTION( '', ( -1.00000000000000, 0.000000000000000, 0.000000000000000 ) );
#167 = SURFACE_STYLE_FILL_AREA( #191 );
#168 = ORIENTED_EDGE( '', *, *, #185, .T. );
#169 = CARTESIAN_POINT( '', ( 0.000000000000000, 0.000000000000000, 0.500000000000000 ) );
#170 = DIRECTION( '', ( 0.000000000000000, 0.000000000000000, -1.00000000000000 ) );
#171 = DIRECTION( '', ( -1.00000000000000, 0.000000000000000, 0.000000000000000 ) );
#172 = SURFACE_STYLE_FILL_AREA( #192 );
#173 = ORIENTED_EDGE( '', *, *, #190, .F. );
#174 = ORIENTED_EDGE( '', *, *, #188, .T. );
#175 = CARTESIAN_POINT( '', ( 0.000000000000000, 0.000000000000000, 57.1500000000000 ) );
#176 = DIRECTION( '', ( -0.000000000000000, -0.000000000000000, -1.00000000000000 ) );
#177 = DIRECTION( '', ( 1.00000000000000, 0.000000000000000, 0.000000000000000 ) );
#178 = FILL_AREA_STYLE( '', ( #193 ) );
#179 = EDGE_CURVE( '', #194, #194, #195, .F. );
#180 = FILL_AREA_STYLE( '', ( #196 ) );
#181 = EDGE_CURVE( '', #197, #197, #198, .T. );
#182 = FILL_AREA_STYLE( '', ( #199 ) );
#183 = EDGE_CURVE( '', #200, #200, #201, .T. );
#184 = FILL_AREA_STYLE( '', ( #202 ) );
#185 = EDGE_CURVE( '', #203, #203, #204, .T. );
#186 = EDGE_CURVE( '', #205, #205, #206, .T. );
#187 = FILL_AREA_STYLE( '', ( #207 ) );
#188 = EDGE_CURVE( '', #208, #208, #209, .T. );
#189 = FILL_AREA_STYLE( '', ( #210 ) );
#190 = EDGE_CURVE( '', #211, #211, #212, .T. );
#191 = FILL_AREA_STYLE( '', ( #213 ) );
#192 = FILL_AREA_STYLE( '', ( #214 ) );
#193 = FILL_AREA_STYLE_COLOUR( '', #215 );
#194 = VERTEX_POINT( '', #216 );
#195 = CIRCLE( '', #217, 1.95000000000000 );
#196 = FILL_AREA_STYLE_COLOUR( '', #218 );
#197 = VERTEX_POINT( '', #219 );
#198 = CIRCLE( '', #220, 2.25000000000000 );
#199 = FILL_AREA_STYLE_COLOUR( '', #221 );
#200 = VERTEX_POINT( '', #222 );
#201 = CIRCLE( '', #223, 2.25000000000000 );
#202 = FILL_AREA_STYLE_COLOUR( '', #224 );
#203 = VERTEX_POINT( '', #225 );
#204 = CIRCLE( '', #226, 1.75000000000000 );
#205 = VERTEX_POINT( '', #227 );
#206 = CIRCLE( '', #228, 1.75000000000000 );
#207 = FILL_AREA_STYLE_COLOUR( '', #229 );
#208 = VERTEX_POINT( '', #230 );
#209 = CIRCLE( '', #231, 4.00000000000000 );
#210 = FILL_AREA_STYLE_COLOUR( '', #232 );
#211 = VERTEX_POINT( '', #233 );
#212 = CIRCLE( '', #234, 4.00000000000000 );
#213 = FILL_AREA_STYLE_COLOUR( '', #235 );
#214 = FILL_AREA_STYLE_COLOUR( '', #236 );
#215 = COLOUR_RGB( '', 1.00000000000000, 1.00000000000000, 1.00000000000000 );
#216 = CARTESIAN_POINT( '', ( 1.95000000000000, 0.000000000000000, 0.000000000000000 ) );
#217 = AXIS2_PLACEMENT_3D( '', #237, #238, #239 );
#218 = COLOUR_RGB( '', 1.00000000000000, 1.00000000000000, 1.00000000000000 );
#219 = CARTESIAN_POINT( '', ( 2.25000000000000, 0.000000000000000, 0.300000000000000 ) );
#220 = AXIS2_PLACEMENT_3D( '', #240, #241, #242 );
#221 = COLOUR_RGB( '', 1.00000000000000, 1.00000000000000, 1.00000000000000 );
#222 = CARTESIAN_POINT( '', ( 2.25000000000000, 0.000000000000000, 5.50000000000000 ) );
#223 = AXIS2_PLACEMENT_3D( '', #243, #244, #245 );
#224 = COLOUR_RGB( '', 1.00000000000000, 1.00000000000000, 1.00000000000000 );
#225 = CARTESIAN_POINT( '', ( 0.000000000000000, -1.75000000000000, 0.500000000000000 ) );
#226 = AXIS2_PLACEMENT_3D( '', #246, #247, #248 );
#227 = CARTESIAN_POINT( '', ( 0.000000000000000, -1.75000000000000, 6.00000000000000 ) );
#228 = AXIS2_PLACEMENT_3D( '', #249, #250, #251 );
#229 = COLOUR_RGB( '', 1.00000000000000, 1.00000000000000, 1.00000000000000 );
#230 = CARTESIAN_POINT( '', ( 4.00000000000000, 0.000000000000000, 5.50000000000000 ) );
#231 = AXIS2_PLACEMENT_3D( '', #252, #253, #254 );
#232 = COLOUR_RGB( '', 1.00000000000000, 1.00000000000000, 1.00000000000000 );
#233 = CARTESIAN_POINT( '', ( 4.00000000000000, 0.000000000000000, 6.00000000000000 ) );
#234 = AXIS2_PLACEMENT_3D( '', #255, #256, #257 );
#235 = COLOUR_RGB( '', 1.00000000000000, 1.00000000000000, 1.00000000000000 );
#236 = COLOUR_RGB( '', 1.00000000000000, 1.00000000000000, 1.00000000000000 );
#237 = CARTESIAN_POINT( '', ( 0.000000000000000, 0.000000000000000, 0.000000000000000 ) );
#238 = DIRECTION( '', ( 0.000000000000000, 0.000000000000000, 1.00000000000000 ) );
#239 = DIRECTION( '', ( 1.00000000000000, 0.000000000000000, 0.000000000000000 ) );
#240 = CARTESIAN_POINT( '', ( 0.000000000000000, 0.000000000000000, 0.300000000000000 ) );
#241 = DIRECTION( '', ( 0.000000000000000, 0.000000000000000, 1.00000000000000 ) );
#242 = DIRECTION( '', ( 1.00000000000000, 0.000000000000000, 0.000000000000000 ) );
#243 = CARTESIAN_POINT( '', ( 0.000000000000000, 0.000000000000000, 5.50000000000000 ) );
#244 = DIRECTION( '', ( 0.000000000000000, 0.000000000000000, 1.00000000000000 ) );
#245 = DIRECTION( '', ( 1.00000000000000, 0.000000000000000, 0.000000000000000 ) );
#246 = CARTESIAN_POINT( '', ( 0.000000000000000, 0.000000000000000, 0.500000000000000 ) );
#247 = DIRECTION( '', ( 0.000000000000000, 0.000000000000000, 1.00000000000000 ) );
#248 = DIRECTION( '', ( 0.000000000000000, -1.00000000000000, 0.000000000000000 ) );
#249 = CARTESIAN_POINT( '', ( 0.000000000000000, 0.000000000000000, 6.00000000000000 ) );
#250 = DIRECTION( '', ( 0.000000000000000, 0.000000000000000, -1.00000000000000 ) );
#251 = DIRECTION( '', ( 0.000000000000000, -1.00000000000000, 0.000000000000000 ) );
#252 = CARTESIAN_POINT( '', ( 0.000000000000000, 0.000000000000000, 5.50000000000000 ) );
#253 = DIRECTION( '', ( 0.000000000000000, 0.000000000000000, 1.00000000000000 ) );
#254 = DIRECTION( '', ( 1.00000000000000, 0.000000000000000, 0.000000000000000 ) );
#255 = CARTESIAN_POINT( '', ( 0.000000000000000, 0.000000000000000, 6.00000000000000 ) );
#256 = DIRECTION( '', ( 0.000000000000000, 0.000000000000000, 1.00000000000000 ) );
#257 = DIRECTION( '', ( 1.00000000000000, 0.000000000000000, 0.000000000000000 ) );
ENDSEC;
END-ISO-10303-21;
