ISO-10303-21;
HEADER;
FILE_DESCRIPTION( ( 'Unknown' ), '1' );
FILE_NAME( '//SBS2003/HD_Usb/Disegni/08_LIB/Users_3D/PROD_GAMM_3D/TSF/STEP/7313053.stp', 'Unknown', ( 'Unknown' ), ( 'Unknown' ), 'PSStep 14.0', 'Unknown', '  ' );
FILE_SCHEMA( ( 'AUTOMOTIVE_DESIGN { 1 0 10303 214 1 1 1 1 }' ) );
ENDSEC;
DATA;
#1 = MECHANICAL_DESIGN_GEOMETRIC_PRESENTATION_REPRESENTATION( ' ', ( #10, #11, #12, #13, #14, #15, #16, #17, #18 ), #6 );
#2 = PRODUCT_DEFINITION_CONTEXT( '', #19, 'design' );
#3 = APPLICATION_PROTOCOL_DEFINITION( 'international standard', 'automotive_design', 2001, #19 );
#4 = PRODUCT_CATEGORY_RELATIONSHIP( 'NONE', 'NONE', #20, #21 );
#5 = SHAPE_DEFINITION_REPRESENTATION( #22, #23 );
#6 =  ( GEOMETRIC_REPRESENTATION_CONTEXT( 3 )GLOBAL_UNCERTAINTY_ASSIGNED_CONTEXT( ( #26 ) )GLOBAL_UNIT_ASSIGNED_CONTEXT( ( #28, #29, #30 ) )REPRESENTATION_CONTEXT( 'NONE', 'WORKSPACE' ) );
#10 = STYLED_ITEM( '', ( #32 ), #33 );
#11 = STYLED_ITEM( '', ( #34 ), #35 );
#12 = STYLED_ITEM( '', ( #36 ), #37 );
#13 = STYLED_ITEM( '', ( #38 ), #39 );
#14 = STYLED_ITEM( '', ( #40 ), #41 );
#15 = STYLED_ITEM( '', ( #42 ), #43 );
#16 = STYLED_ITEM( '', ( #44 ), #45 );
#17 = STYLED_ITEM( '', ( #46 ), #47 );
#18 = STYLED_ITEM( '', ( #48 ), #49 );
#19 = APPLICATION_CONTEXT( 'core data for automotive mechanical design processes' );
#20 = PRODUCT_CATEGORY( 'part', 'NONE' );
#21 = PRODUCT_RELATED_PRODUCT_CATEGORY( 'detail', ' ', ( #50 ) );
#22 = PRODUCT_DEFINITION_SHAPE( 'NONE', 'NONE', #51 );
#23 = ADVANCED_BREP_SHAPE_REPRESENTATION( '1', ( #52, #53 ), #6 );
#26 = UNCERTAINTY_MEASURE_WITH_UNIT( LENGTH_MEASURE( 0.00100000000000000 ), #28, '', '' );
#28 =  ( CONVERSION_BASED_UNIT( 'MILLIMETRE', #56 )LENGTH_UNIT(  )NAMED_UNIT( #59 ) );
#29 =  ( NAMED_UNIT( #61 )PLANE_ANGLE_UNIT(  )SI_UNIT( $, .RADIAN. ) );
#30 =  ( NAMED_UNIT( #61 )SI_UNIT( $, .STERADIAN. )SOLID_ANGLE_UNIT(  ) );
#32 = PRESENTATION_STYLE_ASSIGNMENT( ( #67 ) );
#33 = ADVANCED_FACE( '', ( #68, #69 ), #70, .F. );
#34 = PRESENTATION_STYLE_ASSIGNMENT( ( #71 ) );
#35 = ADVANCED_FACE( '', ( #72 ), #73, .F. );
#36 = PRESENTATION_STYLE_ASSIGNMENT( ( #74 ) );
#37 = ADVANCED_FACE( '', ( #75, #76 ), #77, .F. );
#38 = PRESENTATION_STYLE_ASSIGNMENT( ( #78 ) );
#39 = ADVANCED_FACE( '', ( #79 ), #80, .F. );
#40 = PRESENTATION_STYLE_ASSIGNMENT( ( #81 ) );
#41 = ADVANCED_FACE( '', ( #82, #83 ), #84, .T. );
#42 = PRESENTATION_STYLE_ASSIGNMENT( ( #85 ) );
#43 = ADVANCED_FACE( '', ( #86, #87 ), #88, .F. );
#44 = PRESENTATION_STYLE_ASSIGNMENT( ( #89 ) );
#45 = ADVANCED_FACE( '', ( #90, #91 ), #92, .T. );
#46 = PRESENTATION_STYLE_ASSIGNMENT( ( #93 ) );
#47 = ADVANCED_FACE( '', ( #94, #95 ), #96, .F. );
#48 = PRESENTATION_STYLE_ASSIGNMENT( ( #97 ) );
#49 = ADVANCED_FACE( '', ( #98, #99 ), #100, .T. );
#50 = PRODUCT( '1', '1', 'PART-1-DESC', ( #101 ) );
#51 = PRODUCT_DEFINITION( 'NONE', 'NONE', #102, #2 );
#52 = MANIFOLD_SOLID_BREP( '1', #103 );
#53 = AXIS2_PLACEMENT_3D( '', #104, #105, #106 );
#56 = LENGTH_MEASURE_WITH_UNIT( LENGTH_MEASURE( 1.00000000000000 ), #107 );
#59 = DIMENSIONAL_EXPONENTS( 1.00000000000000, 0.000000000000000, 0.000000000000000, 0.000000000000000, 0.000000000000000, 0.000000000000000, 0.000000000000000 );
#61 = DIMENSIONAL_EXPONENTS( 0.000000000000000, 0.000000000000000, 0.000000000000000, 0.000000000000000, 0.000000000000000, 0.000000000000000, 0.000000000000000 );
#67 = SURFACE_STYLE_USAGE( .BOTH., #108 );
#68 = FACE_BOUND( '', #109, .T. );
#69 = FACE_OUTER_BOUND( '', #110, .T. );
#70 = PLANE( '', #111 );
#71 = SURFACE_STYLE_USAGE( .BOTH., #112 );
#72 = FACE_OUTER_BOUND( '', #113, .T. );
#73 = PLANE( '', #114 );
#74 = SURFACE_STYLE_USAGE( .BOTH., #115 );
#75 = FACE_BOUND( '', #116, .T. );
#76 = FACE_OUTER_BOUND( '', #117, .T. );
#77 = CONICAL_SURFACE( '', #118, 7.50000000000000, 0.785398163397449 );
#78 = SURFACE_STYLE_USAGE( .BOTH., #119 );
#79 = FACE_OUTER_BOUND( '', #120, .T. );
#80 = PLANE( '', #121 );
#81 = SURFACE_STYLE_USAGE( .BOTH., #122 );
#82 = FACE_OUTER_BOUND( '', #123, .T. );
#83 = FACE_OUTER_BOUND( '', #124, .T. );
#84 = CYLINDRICAL_SURFACE( '', #125, 8.00000000000000 );
#85 = SURFACE_STYLE_USAGE( .BOTH., #126 );
#86 = FACE_OUTER_BOUND( '', #127, .T. );
#87 = FACE_BOUND( '', #128, .T. );
#88 = PLANE( '', #129 );
#89 = SURFACE_STYLE_USAGE( .BOTH., #130 );
#90 = FACE_OUTER_BOUND( '', #131, .T. );
#91 = FACE_OUTER_BOUND( '', #132, .T. );
#92 = CYLINDRICAL_SURFACE( '', #133, 10.0000000000000 );
#93 = SURFACE_STYLE_USAGE( .BOTH., #134 );
#94 = FACE_OUTER_BOUND( '', #135, .T. );
#95 = FACE_OUTER_BOUND( '', #136, .T. );
#96 = CYLINDRICAL_SURFACE( '', #137, 7.50000000000000 );
#97 = SURFACE_STYLE_USAGE( .BOTH., #138 );
#98 = FACE_OUTER_BOUND( '', #139, .T. );
#99 = FACE_BOUND( '', #140, .T. );
#100 = CONICAL_SURFACE( '', #141, 6.93933982822019, 0.785398163397448 );
#101 = PRODUCT_CONTEXT( '', #19, 'mechanical' );
#102 = PRODUCT_DEFINITION_FORMATION_WITH_SPECIFIED_SOURCE( ' ', 'NONE', #50, .NOT_KNOWN. );
#103 = CLOSED_SHELL( '', ( #35, #39, #37, #47, #33, #45, #43, #41, #49 ) );
#104 = CARTESIAN_POINT( '', ( 0.000000000000000, 0.000000000000000, 0.000000000000000 ) );
#105 = DIRECTION( '', ( 0.000000000000000, 0.000000000000000, 1.00000000000000 ) );
#106 = DIRECTION( '', ( 1.00000000000000, 0.000000000000000, 0.000000000000000 ) );
#107 =  ( LENGTH_UNIT(  )NAMED_UNIT( #59 )SI_UNIT( .MILLI., .METRE. ) );
#108 = SURFACE_SIDE_STYLE( '', ( #143 ) );
#109 = EDGE_LOOP( '', ( #144 ) );
#110 = EDGE_LOOP( '', ( #145 ) );
#111 = AXIS2_PLACEMENT_3D( '', #146, #147, #148 );
#112 = SURFACE_SIDE_STYLE( '', ( #149 ) );
#113 = EDGE_LOOP( '', ( #150 ) );
#114 = AXIS2_PLACEMENT_3D( '', #151, #152, #153 );
#115 = SURFACE_SIDE_STYLE( '', ( #154 ) );
#116 = EDGE_LOOP( '', ( #155 ) );
#117 = EDGE_LOOP( '', ( #156 ) );
#118 = AXIS2_PLACEMENT_3D( '', #157, #158, #159 );
#119 = SURFACE_SIDE_STYLE( '', ( #160 ) );
#120 = EDGE_LOOP( '', ( #161 ) );
#121 = AXIS2_PLACEMENT_3D( '', #162, #163, #164 );
#122 = SURFACE_SIDE_STYLE( '', ( #165 ) );
#123 = EDGE_LOOP( '', ( #166 ) );
#124 = EDGE_LOOP( '', ( #167 ) );
#125 = AXIS2_PLACEMENT_3D( '', #168, #169, #170 );
#126 = SURFACE_SIDE_STYLE( '', ( #171 ) );
#127 = EDGE_LOOP( '', ( #172 ) );
#128 = EDGE_LOOP( '', ( #173 ) );
#129 = AXIS2_PLACEMENT_3D( '', #174, #175, #176 );
#130 = SURFACE_SIDE_STYLE( '', ( #177 ) );
#131 = EDGE_LOOP( '', ( #178 ) );
#132 = EDGE_LOOP( '', ( #179 ) );
#133 = AXIS2_PLACEMENT_3D( '', #180, #181, #182 );
#134 = SURFACE_SIDE_STYLE( '', ( #183 ) );
#135 = EDGE_LOOP( '', ( #184 ) );
#136 = EDGE_LOOP( '', ( #185 ) );
#137 = AXIS2_PLACEMENT_3D( '', #186, #187, #188 );
#138 = SURFACE_SIDE_STYLE( '', ( #189 ) );
#139 = EDGE_LOOP( '', ( #190 ) );
#140 = EDGE_LOOP( '', ( #191 ) );
#141 = AXIS2_PLACEMENT_3D( '', #192, #193, #194 );
#143 = SURFACE_STYLE_FILL_AREA( #195 );
#144 = ORIENTED_EDGE( '', *, *, #196, .F. );
#145 = ORIENTED_EDGE( '', *, *, #197, .T. );
#146 = CARTESIAN_POINT( '', ( 7.50000000000000, 0.000000000000000, 11.0000000000000 ) );
#147 = DIRECTION( '', ( 0.000000000000000, 0.000000000000000, -1.00000000000000 ) );
#148 = DIRECTION( '', ( -1.00000000000000, 0.000000000000000, 0.000000000000000 ) );
#149 = SURFACE_STYLE_FILL_AREA( #198 );
#150 = ORIENTED_EDGE( '', *, *, #199, .F. );
#151 = CARTESIAN_POINT( '', ( 0.000000000000000, 0.000000000000000, 1.92592994438724E-031 ) );
#152 = DIRECTION( '', ( 0.000000000000000, 0.000000000000000, 1.00000000000000 ) );
#153 = DIRECTION( '', ( 1.00000000000000, 0.000000000000000, 0.000000000000000 ) );
#154 = SURFACE_STYLE_FILL_AREA( #200 );
#155 = ORIENTED_EDGE( '', *, *, #201, .F. );
#156 = ORIENTED_EDGE( '', *, *, #202, .T. );
#157 = CARTESIAN_POINT( '', ( 0.000000000000000, 0.000000000000000, 1.26776695296636 ) );
#158 = DIRECTION( '', ( -0.000000000000000, -0.000000000000000, 1.00000000000000 ) );
#159 = DIRECTION( '', ( 1.00000000000000, 0.000000000000000, 0.000000000000000 ) );
#160 = SURFACE_STYLE_FILL_AREA( #203 );
#161 = ORIENTED_EDGE( '', *, *, #201, .T. );
#162 = CARTESIAN_POINT( '', ( 0.000000000000000, 0.000000000000000, 0.500000000000000 ) );
#163 = DIRECTION( '', ( 0.000000000000000, 0.000000000000000, -1.00000000000000 ) );
#164 = DIRECTION( '', ( -1.00000000000000, 0.000000000000000, 0.000000000000000 ) );
#165 = SURFACE_STYLE_FILL_AREA( #204 );
#166 = ORIENTED_EDGE( '', *, *, #205, .F. );
#167 = ORIENTED_EDGE( '', *, *, #206, .T. );
#168 = CARTESIAN_POINT( '', ( 0.000000000000000, 0.000000000000000, 57.1500000000000 ) );
#169 = DIRECTION( '', ( -0.000000000000000, -0.000000000000000, -1.00000000000000 ) );
#170 = DIRECTION( '', ( 1.00000000000000, 0.000000000000000, 0.000000000000000 ) );
#171 = SURFACE_STYLE_FILL_AREA( #207 );
#172 = ORIENTED_EDGE( '', *, *, #208, .F. );
#173 = ORIENTED_EDGE( '', *, *, #205, .T. );
#174 = CARTESIAN_POINT( '', ( 8.00000000000000, 0.000000000000000, 10.5000000000000 ) );
#175 = DIRECTION( '', ( 0.000000000000000, 0.000000000000000, 1.00000000000000 ) );
#176 = DIRECTION( '', ( 1.00000000000000, 0.000000000000000, 0.000000000000000 ) );
#177 = SURFACE_STYLE_FILL_AREA( #209 );
#178 = ORIENTED_EDGE( '', *, *, #197, .F. );
#179 = ORIENTED_EDGE( '', *, *, #208, .T. );
#180 = CARTESIAN_POINT( '', ( 0.000000000000000, 0.000000000000000, 57.1500000000000 ) );
#181 = DIRECTION( '', ( -0.000000000000000, -0.000000000000000, -1.00000000000000 ) );
#182 = DIRECTION( '', ( 1.00000000000000, 0.000000000000000, 0.000000000000000 ) );
#183 = SURFACE_STYLE_FILL_AREA( #210 );
#184 = ORIENTED_EDGE( '', *, *, #202, .F. );
#185 = ORIENTED_EDGE( '', *, *, #196, .T. );
#186 = CARTESIAN_POINT( '', ( 0.000000000000000, 0.000000000000000, 57.1500000000000 ) );
#187 = DIRECTION( '', ( -0.000000000000000, -0.000000000000000, -1.00000000000000 ) );
#188 = DIRECTION( '', ( 1.00000000000000, 0.000000000000000, 0.000000000000000 ) );
#189 = SURFACE_STYLE_FILL_AREA( #211 );
#190 = ORIENTED_EDGE( '', *, *, #206, .F. );
#191 = ORIENTED_EDGE( '', *, *, #199, .T. );
#192 = CARTESIAN_POINT( '', ( 0.000000000000000, 0.000000000000000, 0.000000000000000 ) );
#193 = DIRECTION( '', ( -0.000000000000000, -0.000000000000000, 1.00000000000000 ) );
#194 = DIRECTION( '', ( 1.00000000000000, 0.000000000000000, 0.000000000000000 ) );
#195 = FILL_AREA_STYLE( '', ( #212 ) );
#196 = EDGE_CURVE( '', #213, #213, #214, .T. );
#197 = EDGE_CURVE( '', #215, #215, #216, .T. );
#198 = FILL_AREA_STYLE( '', ( #217 ) );
#199 = EDGE_CURVE( '', #218, #218, #219, .T. );
#200 = FILL_AREA_STYLE( '', ( #220 ) );
#201 = EDGE_CURVE( '', #221, #221, #222, .T. );
#202 = EDGE_CURVE( '', #223, #223, #224, .T. );
#203 = FILL_AREA_STYLE( '', ( #225 ) );
#204 = FILL_AREA_STYLE( '', ( #226 ) );
#205 = EDGE_CURVE( '', #227, #227, #228, .T. );
#206 = EDGE_CURVE( '', #229, #229, #230, .T. );
#207 = FILL_AREA_STYLE( '', ( #231 ) );
#208 = EDGE_CURVE( '', #232, #232, #233, .T. );
#209 = FILL_AREA_STYLE( '', ( #234 ) );
#210 = FILL_AREA_STYLE( '', ( #235 ) );
#211 = FILL_AREA_STYLE( '', ( #236 ) );
#212 = FILL_AREA_STYLE_COLOUR( '', #237 );
#213 = VERTEX_POINT( '', #238 );
#214 = CIRCLE( '', #239, 7.50000000000000 );
#215 = VERTEX_POINT( '', #240 );
#216 = CIRCLE( '', #241, 10.0000000000000 );
#217 = FILL_AREA_STYLE_COLOUR( '', #242 );
#218 = VERTEX_POINT( '', #243 );
#219 = CIRCLE( '', #244, 6.93933982822019 );
#220 = FILL_AREA_STYLE_COLOUR( '', #245 );
#221 = VERTEX_POINT( '', #246 );
#222 = CIRCLE( '', #247, 6.73223304703364 );
#223 = VERTEX_POINT( '', #248 );
#224 = CIRCLE( '', #249, 7.50000000000000 );
#225 = FILL_AREA_STYLE_COLOUR( '', #250 );
#226 = FILL_AREA_STYLE_COLOUR( '', #251 );
#227 = VERTEX_POINT( '', #252 );
#228 = CIRCLE( '', #253, 8.00000000000000 );
#229 = VERTEX_POINT( '', #254 );
#230 = CIRCLE( '', #255, 8.00000000000000 );
#231 = FILL_AREA_STYLE_COLOUR( '', #256 );
#232 = VERTEX_POINT( '', #257 );
#233 = CIRCLE( '', #258, 10.0000000000000 );
#234 = FILL_AREA_STYLE_COLOUR( '', #259 );
#235 = FILL_AREA_STYLE_COLOUR( '', #260 );
#236 = FILL_AREA_STYLE_COLOUR( '', #261 );
#237 = COLOUR_RGB( '', 1.00000000000000, 1.00000000000000, 1.00000000000000 );
#238 = CARTESIAN_POINT( '', ( 7.50000000000000, 0.000000000000000, 11.0000000000000 ) );
#239 = AXIS2_PLACEMENT_3D( '', #262, #263, #264 );
#240 = CARTESIAN_POINT( '', ( 10.0000000000000, 0.000000000000000, 11.0000000000000 ) );
#241 = AXIS2_PLACEMENT_3D( '', #265, #266, #267 );
#242 = COLOUR_RGB( '', 1.00000000000000, 1.00000000000000, 1.00000000000000 );
#243 = CARTESIAN_POINT( '', ( 6.93933982822019, 0.000000000000000, 0.000000000000000 ) );
#244 = AXIS2_PLACEMENT_3D( '', #268, #269, #270 );
#245 = COLOUR_RGB( '', 1.00000000000000, 1.00000000000000, 1.00000000000000 );
#246 = CARTESIAN_POINT( '', ( 6.73223304703364, 0.000000000000000, 0.500000000000000 ) );
#247 = AXIS2_PLACEMENT_3D( '', #271, #272, #273 );
#248 = CARTESIAN_POINT( '', ( 7.50000000000000, 0.000000000000000, 1.26776695296636 ) );
#249 = AXIS2_PLACEMENT_3D( '', #274, #275, #276 );
#250 = COLOUR_RGB( '', 1.00000000000000, 1.00000000000000, 1.00000000000000 );
#251 = COLOUR_RGB( '', 1.00000000000000, 1.00000000000000, 1.00000000000000 );
#252 = CARTESIAN_POINT( '', ( 8.00000000000000, 0.000000000000000, 10.5000000000000 ) );
#253 = AXIS2_PLACEMENT_3D( '', #277, #278, #279 );
#254 = CARTESIAN_POINT( '', ( 8.00000000000000, 0.000000000000000, 1.06066017177982 ) );
#255 = AXIS2_PLACEMENT_3D( '', #280, #281, #282 );
#256 = COLOUR_RGB( '', 1.00000000000000, 1.00000000000000, 1.00000000000000 );
#257 = CARTESIAN_POINT( '', ( 10.0000000000000, 0.000000000000000, 10.5000000000000 ) );
#258 = AXIS2_PLACEMENT_3D( '', #283, #284, #285 );
#259 = COLOUR_RGB( '', 1.00000000000000, 1.00000000000000, 1.00000000000000 );
#260 = COLOUR_RGB( '', 1.00000000000000, 1.00000000000000, 1.00000000000000 );
#261 = COLOUR_RGB( '', 1.00000000000000, 1.00000000000000, 1.00000000000000 );
#262 = CARTESIAN_POINT( '', ( 0.000000000000000, 0.000000000000000, 11.0000000000000 ) );
#263 = DIRECTION( '', ( 0.000000000000000, 0.000000000000000, 1.00000000000000 ) );
#264 = DIRECTION( '', ( 1.00000000000000, 0.000000000000000, 0.000000000000000 ) );
#265 = CARTESIAN_POINT( '', ( 0.000000000000000, 0.000000000000000, 11.0000000000000 ) );
#266 = DIRECTION( '', ( 0.000000000000000, 0.000000000000000, 1.00000000000000 ) );
#267 = DIRECTION( '', ( 1.00000000000000, 0.000000000000000, 0.000000000000000 ) );
#268 = CARTESIAN_POINT( '', ( 0.000000000000000, 0.000000000000000, 0.000000000000000 ) );
#269 = DIRECTION( '', ( 0.000000000000000, 0.000000000000000, 1.00000000000000 ) );
#270 = DIRECTION( '', ( 1.00000000000000, 0.000000000000000, 0.000000000000000 ) );
#271 = CARTESIAN_POINT( '', ( 0.000000000000000, 0.000000000000000, 0.500000000000000 ) );
#272 = DIRECTION( '', ( 0.000000000000000, 0.000000000000000, 1.00000000000000 ) );
#273 = DIRECTION( '', ( 1.00000000000000, 0.000000000000000, 0.000000000000000 ) );
#274 = CARTESIAN_POINT( '', ( 0.000000000000000, 0.000000000000000, 1.26776695296636 ) );
#275 = DIRECTION( '', ( 0.000000000000000, 0.000000000000000, 1.00000000000000 ) );
#276 = DIRECTION( '', ( 1.00000000000000, 0.000000000000000, 0.000000000000000 ) );
#277 = CARTESIAN_POINT( '', ( 0.000000000000000, 0.000000000000000, 10.5000000000000 ) );
#278 = DIRECTION( '', ( 0.000000000000000, 0.000000000000000, 1.00000000000000 ) );
#279 = DIRECTION( '', ( 1.00000000000000, 0.000000000000000, 0.000000000000000 ) );
#280 = CARTESIAN_POINT( '', ( 0.000000000000000, 0.000000000000000, 1.06066017177982 ) );
#281 = DIRECTION( '', ( 0.000000000000000, 0.000000000000000, 1.00000000000000 ) );
#282 = DIRECTION( '', ( 1.00000000000000, 0.000000000000000, 0.000000000000000 ) );
#283 = CARTESIAN_POINT( '', ( 0.000000000000000, 0.000000000000000, 10.5000000000000 ) );
#284 = DIRECTION( '', ( 0.000000000000000, 0.000000000000000, 1.00000000000000 ) );
#285 = DIRECTION( '', ( 1.00000000000000, 0.000000000000000, 0.000000000000000 ) );
ENDSEC;
END-ISO-10303-21;
